Guitaretab - guitar tabs
Song name
# A B C D E F G H I J K L M N O P Q R S T U V W X Y Z

Alien Ant Farm - Attitude tab

Attitude- Alien Ant Farm
ANThology

Intro- (speed pick) (h) - harmonic
x4 (might be few notes high or low but im content with this)
e----------------------------------------------------|
b----------------------------------------------------|
g---------10-------10---------12--12--------9--9-----|
d-10-12-12---12-12---10-12-12---12--10-12-12-12------|
a----------------------------------------------------|
e----------------------------------------------------|

e-----------------------------------------------------|
b-----------------------------------------------------|
g---------10-----10--------10-----10--------10-----10-|
d-10-12-12--12-12--10-12-12--12-12--10-12-12--12-12---|
a-----------------------------------------------------|
e-----------------------------------------------------|

(bass gap)
Chorus x2
e-------------------------------------------------------|
b-------------------------------------------------------|
g-------------------------------------------------------|
d-------------------------------------------------------|
a----5----5-----7----9----9-------4---4------2---2----4-|
e-7-----7---7/9---10---10---10--5---5--5--3----3----5---|

e-----------------------------------------------------|
b-----------------------------------------------------|
g-----------------------------------------------------|
d-------------------------------------------5---5---7-|
a----5----5-----7----9----9-------4---4---7---7---9---|
e-7-----7---7/9---10---10---10--5---5---5-------------|

then (not exact timing but should come easily)
e------------------------------------------------------------|
b------------------------------------------------------------|
g------------------------------------------------------------|
d------------------------------------------------------------|
a-5-5-5-5-5---7-7----9--9--9--9--9--9--4-4-4-4--2-2--4-4-4-4-|
e-7-7-7-7-7---9-9---10-10-10-10-10-10--5-5-5-5--3-3--5-5-5-5-|

e-------------------------------------------------------|
b-------------------------------------------------------|
g-------------------------------------------------------|
d-----------------------------------------------5-5-7-7-|
a-5-5-5-5-5---7-7----9--9--9--9--9--9--4-4-4-4--7-7-9-9-|
e-7-7-7-7-7---9-9---10-10-10-10-10-10--5-5-5-5----------|

harmonic
e---------(7)----------------------------(7)-----------------|
b--(7)-----------(7)-----(5)--------(7--------(7)----(5)-----|
g-----(7)------------(7)-----(5)-------(7)-------(7)----(5)--|
d------------------------------------------------------------|
a------------------------------------------------------------|
e------------------------------------------------------------|

Chorus x2
e-------------------------------------------------------|
b-------------------------------------------------------|
g-------------------------------------------------------|
d-------------------------------------------------------|
a----5----5-----7----9----9-------4---4------2---2----4-|
e-7-----7---7/9---10---10---10--5---5--5--3----3----5---|

e-----------------------------------------------------|
b-----------------------------------------------------|
g-----------------------------------------------------|
d-------------------------------------------5---5---7-|
a----5----5-----7----9----9-------4---4---7---7---9---|
e-7-----7---7/9---10---10---10--5---5---5-------------|
[ Tab from: http://www.guitaretab.com/a/alien-ant-farm/25280.html ]
e------------------------------------------------------------|
b------------------------------------------------------------|
g------------------------------------------------------------|
d------------------------------------------------------------|
a-5-5-5-5-5---7-7----9--9--9--9--9--9--4-4-4-4--2-2--4-4-4-4-|
e-7-7-7-7-7---9-9---10-10-10-10-10-10--5-5-5-5--3-3--5-5-5-5-|

e-------------------------------------------------------|
b-------------------------------------------------------|
g-------------------------------------------------------|
d-----------------------------------------------5-5-7-7-|
a-5-5-5-5-5---7-7----9--9--9--9--9--9--4-4-4-4--7-7-9-9-|
e-7-7-7-7-7---9-9---10-10-10-10-10-10--5-5-5-5----------|

then..
e----------------------------------------------------------|
b----------------------------------------------------------|
g----------------------------------------------------------|
d------------7-77-7---5-4-------------7-77-7-5-4-2-22-2-22-|
a-5-55-5-55----------------5-55-5-55-----------------------|
e----------------------------------------------------------|

e-----------------------------| repeat x times
b-----------------------------|
g-----------------------------|
d-7-77-7-5-4------------------|
a------------5----------------|
e-----------------------------|

x4
e----------------------------------------------------|
b----------------------------------------------------|
g---------10-------10---------12--12--------9--9-----|
d-10-12-12---12-12---10-12-12---12--10-12-12-12------|
a----------------------------------------------------|
e----------------------------------------------------|

e-----------------------------------------------------|
b-----------------------------------------------------|
g---------10-----10--------10-----10--------10-----10-|
d-10-12-12--12-12--10-12-12--12-12--10-12-12--12-12---|
a-----------------------------------------------------|
e-----------------------------------------------------|

e----------------------------------------------------|
b----------------------------------------------------|
g----7-----------9-------9-----------11--------------|
d-11---9-11-11-9---11-11---9-11-11-9----11-----------|
a----------------------------------------------------|
e----------------------------------------------------|

e-----------------------------------------------------|
b-----------------------------------------------------|
g----11-----------8---------8-------8-----------9-----|
d-11----9-11-11-9---11-11-9---11-11---9-11-11-9---11--|
a-----------------------------------------------------|
e-----------------------------------------------------|

e-----------------------------------------------------|
b-----------------------------------------------------|
g----9-----------8-------9-----------11---------------|
d-11---9-11-11-9---11-11---9-11-11-9----11------------|
a-----------------------------------------------------|
e-----------------------------------------------------|

e-----------------------------------------------------|
b-----------------------------------------------------|
g----11-----------8-------8-----------9---------------|
d-11----9-11-11-9---11-11---9-11-11-9---11------------|
a-----------------------------------------------------|
e-----------------------------------------------------|

e----------------------------------------------------|
b----------------------------------------------------|
g---------10-------10---------12--12--------9--9-----|
d-10-12-12---12-12---10-12-12---12--10-12-12-12------|
a----------------------------------------------------|
e----------------------------------------------------|

e-----------------------------------------------------|
b-----------------------------------------------------|
g---------10-----10--------10-----10--------10-----10-|
d-10-12-12--12-12--10-12-12--12-12--10-12-12--12-12---|
a-----------------------------------------------------|
e-----------------------------------------------------|

After that it should be all down hill hope this tab works for everyone peace.
Related for Attitude tab
Advertisement will be closed in 10 seconds