Song name
# A B C D E F G H I J K L M N O P Q R S T U V W X Y Z

Alien Ant Farm - Glow tab

Help us improve GuitareTab! Take a short survey!
AAF is amazing!
comment
rate

so here it is...
e|--------------------------|
B|--------------------------|
G|--------------------------|play 4x
D|---5-5-5-5-5-5-5-5-5-5-5-5|
A|---3-3-0-2-2-0-x-x-x-x-x-x|
E|---------------6-6-0-5-5-5|

e|--------------------------|
B|--------------------------|
G|--------------------------|
D|---5-5-5-5-5-5-5-5-5-5-5-5|play 1x
A|---3-3-0-5-5-0-6-6-0-5-5-5|
E|--------------------------|

e|--------------------------|
B|--------------------------|
G|--------------------------|play 1x
D|---5-5-5-5-5-5-5----------|
A|---x-x-x-x-x-x-x----------|
E|---5-5-5-5-5-5-5----------|

play that whole thing 2x


then it the chorus which is...

E     G      C9
I'll be the switch she turns on
E        G        F
She'll be mine too
I get off
E      G      F
I'll be the fuse that she blows
E     G           C9
And even with the lights out we'll glow
E     G     C9
Glow, Glow, Glow


e|--------------------------|
B|--------------------------|
G|--------------------------|
D|---5-5-5-5-5-5-5-5-5-5-5-5|
A|---3-3-0-2-2-0-x-x-x-x-x-x|
E|---------------6-6-0-5-5-5|

e|--------------------------|
B|--------------------------|
G|--------------------------|
D|---5-5-5-5-5-5-5-5-5-5-5-5|
A|---3-3-0-5-5-0-6-6-0-5-5-5|
E|--------------------------|

then just the bass plays and its the solo which is this...


e--------------------------------------------------------------------------|
B--------------------------------------------------------------------------|
G--------12----------14-------/15-14-12------------------------------------|
D-12-/14----14-13-12----12-12-----------------------------------------12-14|
A------------------------------------------12b13r12-------------12-14------|
E---------------------------------------15----------15-15-12-15------------|

e--------------------------------------------------------------------------|
B--------------------------------------------------------------------------|
G-12-------------14-14-12-12-----------------------------------------------|
D----14p12h14-14-------------14-14-14p12----------------------12-----------|
A----------------------------------------14-14-13-12-14-12-14----14--------|
E--------------------------------------------------------------------------|


e-------------------------------------------------12----12-12-12-12--------|
B-------------------------------12----12-15-12-15----15--------------------|
G-------------12----12-14-12-14----14--------------------------------------|
D-12-14-12-14----14--------------------------------------------------------|
A--------------------------------------------------------------------------|
E--------------------------------------------------------------------------|


e-/15-15-14-14-12-12-10-/12-12-10-/12-12-10-------------/15-15-14-14-12----|
B-------------------------------------------12-12-12-12--------------------|
G--------------------------------------------------------------------------|
D--------------------------------------------------------------------------|
A--------------------------------------------------------------------------|
E--------------------------------------------------------------------------|


|-12-----------------------------------------------------------------------|
|----12-/14-14-14b16r14----------------------------------------------------|
|----12-/14-14-14b16r14-14-12-------12h14-12-11h12----11----------11-12----|
|-----------------------------14-14----------------14----14-12-14----------|
|--------------------------------------------------------------------------|
|--------------------------------------------------------------------------|


|-------------------------------------------------17b19==19r17-15-----------
|----------12----12-13-12-15-12-15-12-15-12-15-12-----------------17-15b17--
|-14-12-14----14------------------------------------------------------------
|---------------------------------------------------------------------------
|---------------------------------------------------------------------------
|---------------------------------------------------------------------------

it is just vocals and drums after solo

then it is chorus again...

then this...
e|--------------------------|
B|--------------------------|
G|--------------------------|
D|---5-5-5-5-5-5-5-5-5-5-5-5|play 4x
A|---3-3-0-2-2-0-x-x-x-x-x-x|
E|---------------6-6-0-5-5-5|

e|--------------------------|
B|--------------------------|
G|--------------------------|
D|---5-5-5-5-5-5-5----5!----|
A|---x-x-x-x-x-x-x----3!----|
E|---5-5-5-5-5-5-5----------|
Related for Glow tab