Alien Ant Farm - Movies tab

please rate!


INTRO/VERSE

e -------------------------||--------------------------||
B -------------------------||--------------------------||
G -8/9-9-x-x-x-x-x-x-x-x-x-||--14\13-x-9-9-9-9-9-9-9-9-||
D -9---9-x-x-x-x-x-x-x-x-x-||--------x-----------------||
A -6/7-7-x-x-x-x-x-x-x-x-x-||--12\11-x-7-7-7-7-7-7-7-7-||
E -------------------------|| -0-0-0-------------------||


e ----------------|
B ----------------|
G -11-11-11-11-11-|
D ----------------|
A -9--9--9--9--9--|
E ----------------|



CHORUS

I know it doesnt look like the chorus, but believe me, it is

e ------------------------------------------------------------|
B ------------------------------------------------------------|
G -8/9--9-9-8/9--9-9-9-9-9-9-9--8/9--9-9-8/9--9-9-14-14-14-14-|
D ------------------------------------------------------------|
A -6/7--7-7-6/7--7-7-7-7-7-7-7--6/7--7-7-6/7--7-7-12-12-12-12-|
E ------------------------------------------------------------|

e ----------------------------------------------------------|
B ----------------------------------------------------------|
G -13--13-13-13-13-13-13-13-13-13-11--11-11--11-11-11-11-11-|
D ----------------------------------------------------------|
A -11--11-11-11-11-11-11-11-11-11-9---9--9---9--9--9--9--9--|
E -0---0--0--0--0--0--0--0--0--0----------------------------|

play the above twice, and then finish the chorus with:

e ----------|
B ----------|
G -9--------|
D ----------|
A -7--------|
E ----------|

Alternative chorus (if you still don't believe that the above is right)

e --------------------------------------------------------------------||
B --------------------------------------------------------------------||
G ---------------------------------13-13-13-13-13-13-11-11-11-11-11-11||
D -7--7-7-7-7-7--7-6\-4--4/7-/-10-------------------------------------||
A -7--7-7-7-7-7--7-7\-4--4/7-/-10--11-11-11-11-11-11-9--9--9--9--9--9-||
E -5--5-5-5-5-5--5-4\-2--2/5-/-8---0--0--0--0--0--0-------------------||

e ----------|
B ----------|
G -9--------|
D ----------|
A -7--------|
E ----------|

the main bit of the alternative chorus is actually played by the bass...but im not gona 
try persuade you anymore, choose whichever you want! D:

repeat verse, then

e -----------------------------------------------------------------------|
B -----------------------------------------------------------------------|
G -----------------------------------------------------------------------|
D -6-6-6-6-6-6-6-6-6-9-9-9-4-4-4-4-4-4-4-4-4-4-4-6-6-6-6-6---------------|
A -4-4-4-4-4-4-4-4-4-7-7-7-2-2-2-2-2-2-2-2-2-2-2-4-4-4-4-4-6-6-6-6-6-6-6-|
E ---------------------------------------------------------4-4-4-4-4-4-4-|

  pm -------------------------------------------------------------------

e ---------------------|
B ---------------------|
G ---------------------|
D ---------------------|
A -7-9-9-9-9-9---------|
E -5-7-7-7-7-7-0-0-0-0-|

----------------------'

e -----------------------------------------------------------------------|
B -----------------------------------------------------------------------|
G -----------------------------------------------------------------------|
D -6-6-6-6-6-6-6-6-6-9-9-9-4-4-4-4-4-4-4-4-4-4-4-6-6-6-6-6-----6-6-6-6-6-|
A -4-4-4-4-4-4-4-4-4-7-7-7-2-2-2-2-2-2-2-2-2-2-2-4-4-4-4-4-6-6-6-6-6-6-6-|
E ---------------------------------------------------------4-4-4-4-4-4-4-|

pm -----------------------------------------------------------'

e ----------------|
B ----------------|
G -11-11-11-11-11-|
D ----------------|
A -9--9--9--9--9--|
E ----------------|

CHORUS

e -7--7-7----12---------|
B -10-9-7----12---------|
G -9--9-9----9----------|
D -7--7-7----9----------|
A ----------------------|
E ----------------------|

e ---------||---------------------------------------------------|
B ---------||---------------------------------------------------|
G ---------||-6-6-6-6---------6-6-6-6---------6-6-6-6-----------|
D -6-6-6-6-||---------6-6-6-6---------6-6-6-6---------6-6-6-6-6-|
A -4-4-4-4-||-4-4-4-4-4-4-4-4-4-4-4-4-4-4-4-4-4-4-4-4-4-4-4-4-4-|
E ---------||---------------------------------------------------|

pm -------'           -------'       --------'        --'

e ----------------|
B ----------------|
G -11-11-11-11-11-|
D ----------------|
A -9--9--9--9--9--|
E ----------------|

CHORUS

outro

e -7--7-7----12---------|
B -10-9-7----12---------|
G -9--9-9----9----------|
D -7--7-7----9----------|
A ----------------------|
E ----------------------|

backing guitar

e ----------------------|
B ----------------------|
G -14-13-11----9--------|
D ----------------------|
A -12-11-9-----7--------|
E -------------0--------|
Tap to rate this tab
 
# A B C D E F G H I J K L M N O P Q R S T U V W X Y Z