Song name
# A B C D E F G H I J K L M N O P Q R S T U V W X Y Z

Alien Ant Farm - Glow tab

Glow - Solo
Alien Ant Farm
truANT

Standard Tuning

e|-------------------------------------------|
B|-------------------------------------------|
G|-------12-----------14-------14b(16)-14-12-|
D|-12/14-----14-13-12----12-12---------------|
A|-------------------------------------------|
E|-------------------------------------------|

e|-------------------------------------------|
B|-----------------------------8-------------|
G|-------------------------7-9----9p7h9------|
D|-7b(8)r7p5---5---5-7-7/9-------------------|
A|-----------7---7---------------------------|
E|-------------------------------------------|

e|-------------------------------------------|
B|-12----12-12-12----------------------------|
G|-12h14-14-12-12-12----12-------------------|
D|----------------13/14-14-12-12-------------|
A|--------------------------------14-13-12---|
E|-------------------------------------------|

e|-------------------------------------------|
B|-------------------------------------------|
G|----------------------------------12----12-|
D|------------12----12---14-12-14------14----|
A|-14-12-14------14--------------------------|
E|-------------------------------------------|

e|----------------------------------12----12-|
B|------------12----12---15-12-15------15----|
G|-14-12-14------14--------------------------|
D|-------------------------------------------|
A|-------------------------------------------|
E|-------------------------------------------|

e|-12-12-12-12--15-15-14-14--12-12-------12--|
B|---------------------------------15b17-----|
G|-------------------------------------------|
D|-------------------------------------------|
A|-------------------------------------------|
E|-------------------------------------------|

e|---------12-------------------15-15-14-14--|
B|-15b(17)----15-12---12-12-12---------------|
G|-------------------------------------------|
D|-------------------------------------------|
A|-------------------------------------------|
E|-------------------------------------------|

e|-12-12-------------------------------------|
B|--------12------12-------------------------|
G|--------14b(16)-14b(16)r14p12----12--------|
D|------------------------------14----14-----|
A|-------------------------------------------|
E|-------------------------------------------|

e|-------------------------------------------|
B|-------------------------------------------|
G|-12h14p12-11h12p11-9p11h9----9-12-14-12-14-|
D|--------------------------12---------------|
A|-------------------------------------------|
E|-------------------------------------------|

e|-------------------------------------------|
B|-12----12-13----12-15-12-15-12-15-12-15-12-|
G|----14-------------------------------------|
D|-------------------------------------------|
A|-------------------------------------------|
E|-------------------------------------------|

e|---17b(19)-17b(19)r17p15----15-------------|
B|-------------------------17----15b(17)-----|
G|-------------------------------------------|
D|-------------------------------------------|
A|-------------------------------------------|
E|-------------------------------------------|
Tap to rate this tab
# A B C D E F G H I J K L M N O P Q R S T U V W X Y Z