Song name
# A B C D E F G H I J K L M N O P Q R S T U V W X Y Z

Alien Ant Farm - Sarah Wynn tab

Help us improve GuitareTab! Take a short survey!
Here's another accurate tab to go along with my other recently tabbed AAF songs which
include Bellman Bad Morning Around The Block and now this...I'll have more up soon

Sarah Wynn
Alien Ant Farm
Tuning:Stanadard

Dist. Elec

Intro/verse                                         strum 
e|-------------------------------------------------------------------------|
B|-------------------------------------------------------------------------|
G|-------------------------------------------------------------------------|
D|------9-7----9-7---7-7----7-5----7-5----7----7-7-7-8-8-8-----------------|
A|-----10-9---10-9---9-9----9-7----9-7----9----x-x-x-x-x-x-----------------|
E|-8-8-----7-7----7-7----6-6----6-6----6-6-----5-5-5-6-6-6-----------------|


Chorus..strum listen for timing
e|-------------------------------------------------------------------------|
B|-------------------------------------------------------------------------|
G|--5----------------------------------------------------------------------|
D|--5-----2----------------------------------------------------------------|
A|--3-----2----5---5-----8-8--7-7-5-5--------------------------------------|
E|--3-----0----2---3--6-6-6--6-6-6-6-6-------------------------------------|


end of secomd Verse
e|-------------------------------------------------------------------------|
B|-------------------------------------------------------------------------|
G|--5-5-4-4----------------------------------------------------------------|
D|--5-5-4-4---7-7-7-8-8-8--------------------------------------------------|
A|--3-3-2-2---x-x-x-x-x-x--------------------------------------------------|
E|--3-3-2-2---5-5-5-6-6-6--------------------------------------------------|

Chorus

End part of chorus 
e|-------------------------------------------------------------------------|
B|-------------------------------------------------------------------------|
G|---5---------------------------------------------------------------------|
D|---5--2--5---------------------------------------------------------------|
A|---3--2--5---------------------------------------------------------------|
E|---3--0--3---------------------------------------------------------------|


part"habits are hard to break..."  rough idea.listen for timing
e|-------------------------------------------------------------------------|
B|-------------------------------------------------------------------------|
G|-----5----5----5/-7-7/-10-10-twice-----5---5----5/7/-9/10-9--------------|
D|-7-7---7-7--7-7-/-8-8/-12-12--------7-7-7-7--7-7-/8/10/12-10-------------|
A|-------------------------------------------------------------------------|
E|-------------------------------------------------------------------------|

continuted                       slows down..alnerate the picking
e|-------------------------------------------------------------------------|
B|-------------------------------------------------------------------------|
G|----5---5---5/7/-9/10/15-------5---5----5--5-5---------------------------|
D|-7-7-7-7-7-7-/8/10/12/17----7-7-7-7--7-7--7-7----------------------------|
A|-------------------------------------------------------------------------|
E|-------------------------------------------------------------------------|

then
e|-------------------------------------------------------------------------|
B|-------------------------------------------------------------------------|
G|-5-5-5-5/11--------------------------------------------------------------|
D|-7-7-7-7/12--------------------------------------------------------------|
A|-------------------------------------------------------------------------|
E|-------------------------------------------------------------------------|


Intro

Chorus

End
e|-------------------------------------------------------------------------|
B|-------------------0-----------------------------------------------------|
G|--5---4---3--------0-----------------------------------------------------|
D|--5---4---3----7---------------------------------------------------------|
A|--3---2---1----7---------------------------------------------------------|
E|--3---2---1----5---------------------------------------------------------|


Related for Sarah Wynn tab