Song name
# A B C D E F G H I J K L M N O P Q R S T U V W X Y Z

Alien Ant Farm - Ss Recognize tab

Artist: Alien Ant Farm

Song: S.S. Recognize

Album: truANT

F***ing love the song, and absolutely no one (that i know) has tried to tab it!
Shame on you's! So im taking this oppurtunity to tab the masterpiece... this is also my 
official
tab attempt so bear w/ me here, and R.I.P. AAF

Intro:

e|-----------------------------------|
B|-----------------------------------|
G|-----------------------------------|
D|-----------------------------------|  x4
A|---3---5---4---1---2---4---8---7---|
E|---3---3---4---1---2---2---8---7---|
P.M. :::::::::::::::::::::::::::::::::

|------------------------------------|
|------------------------------------|
|------------------------------------|  x4 (P.M. the first 3 and slowly release on the 4th)
|---5---5---6---3---4---4---8---7----|
|---3---4---6---3---2---4---8---7----|
|---3---3---4---1---2---2---6---5----|

|------------------------------------|
|------------------------------------|
|------------------------------------|  x4
|---4---5---5---9---11---------------|
|---4---3---3---9---11--7-7-7-7------|
|---2---3---3---7---9---7h9-9-9------|


|-------------|
|-------------|
|-------------|
|--4-4-4-4-5--|
|--4-4-4-4-3--|
|--2-2-2-2-3--|

Verse: 0:38

|---------------------------------------------------|
|---------------------------------------------------|
|---------------------------------------------------|  x3
|-2-2--4-4------------------------2-2--4-4----------|      (the verse pattern isn't hard 
figure out)
|----------4-4-4-4--------3-3-3-3----------4-4-4-4--|
|-----------------(*)-2-2---------------------------|
P.M. ::::::::::::::::::::::::::::::::::::::::::::::


|-----------------|         |----------------|        |-------|
|-----------------|         |----------------|        |-------|
|-----------------| (1)     |----------------| (2)    |---5---|
|-----------------|         |---5-5-5-5--5---|        |---5---|
|--4-4--4-4--4-4--|         |---5-5-5-5--3---|        |---3---|
|--2-2--2-2--2-2--|         |---3-3-3-3--3---|        |---3---|

Chorus: 1:08

|------------------------------------|
|------------------------------------|
|------------------------------------|  x4
|---4---5---5---9---11---------------|
|---4---3---3---9---11--7-7-7-7------|
|---2---3---3---7---9---7~9-9-9------|

Verse 2: 1:26

Same shiet as Verse 1, except the verse starts at (*). Just listen to it... and (1) is 
to this:

  D|-----4-----4-----4--|
  A|-----3-----3-----3--|
  E|-2-2---2-2---2-2----|
P.M. ...   ...   ...

Chorus: 1:47

Bridge: 2:06

|-----------------------------     ------------------------------|
|-----------------------------     ------------------------------|
|----------------------------- x8  ------------------------------| x1
|-----------------------------     ------------------------------|
|-0---5-0-0-7-6-5-0-0---0h1---     -0---5-0-0-7-6-5-7-6-7-6--0-1-|
|---6-----------------3-------     ---6---------------------3----|

|-------------------------------------|
|-------------------------------------|
|--------------------------(*)--------|     (everyother time he stops at (*))
|--7-7-7--2~---7-7-7--2-3p2---3p2-2---| x4
|--7-7-7--2~---7-7-7--2-3p2---3p2-2---|
|--5-5-5--0~---5-5-5--0-1-----1---0---|

wah effect:
|-----------------------|
|-----------------------|
|--------------5-4\-----| x4 (4th time he plays tremolo)
|--2~--5-4-7-5----------|
|--2~-------------------|
|--0~-------------------|

Breakdown: 3:03

Same as Intro

Chorus: 3:18

Outro: 3:36

D|--------------------------------------------|
A|--4-4-4-4--7-7-7-7-7-7-7-7--11-11-11-11-----|
E|--------------------------------------------|

Guitar 2:

|--------------|
|-4--5-5---9---|
|-4--3-3---7---|
|-2--3-3---7---|
Tap to rate this tab
 
# A B C D E F G H I J K L M N O P Q R S T U V W X Y Z