Song name
# A B C D E F G H I J K L M N O P Q R S T U V W X Y Z

Alien Ant Farm - Lipstick Anthem tab

Band- Alien Ant Farm
Song- The Lipstick Anthem

MTV Bonus Track

Clean Tone
-8-8--10-10--8-8-8---------------------|
-8-8--10-10--8-8-8---------------------|
-5-5--7--7---5-5-5---------------------|
---------------------------------------|
---------------------------------------|
---------------------------------------|

Lots of Distortion
-------------------------------------------------|
-------------------------------------------------|
-------------------------------------------------|
-------------------------------------------------|
-3-0-5-0-3-0-5-0-3-0-5-0-3-0-5-0-3~~~------------|
-------------------------------------------------|

-------------------------------------------------|
-------------------------------------------------|
-------------------------------------------------|
-5-0-7-0-3-0-5-0-7-0-7-0-5~~~~~~~~---------------|
-------------------------------------------------|
-------------------------------------------------|

------------------------|
------------------------|
------------------------|
-5-0-----7-3-5-3-7~~~~--|
-----5-0----------------|
------------------------|

-------------------|
-------------------|
-7-5---------------|
-7-5--7-5--2-------|
-5-3--7-5--2-------|
------5-3--0-------|
Tap to rate this tab
# A B C D E F G H I J K L M N O P Q R S T U V W X Y Z