Song name
# A B C D E F G H I J K L M N O P Q R S T U V W X Y Z

Alien Ant Farm - Bad Morning tab

----------------------------------------------------------------------------
				BAD MORNING - Alien Ant Farm
----------------------------------------------------------------------------
Album: Up In the Attic
Tuning: Standard



Intro Riff:
e|------------------|---------------|------------------|---------------------|
B|------------------|---------------|------------------|---------------------|
G|-------2--6/7-6---|---------------|-------2--6/7-6---|-4-4-4-4-x-4/5-5-5-5-|
D|-4-4-4-2--6/7-6---|-4-4-4-2-2-4-2-|-4-4-4-2--6/7-6---|-4-4-4-4-x-4/5-5-5-5-|
A|-4-4-4-0--4/5-4-0-|-2-2-2-0-0-2-0-|-4-4-4-0--4/5-4-0-|-2-2-2-2-x-2/3-3-3-3-|
E|-2-2-2------------|---------------|-2-2-2------------|---------------------|
    

                                                     
 Verse:
e|----------------(5)-(5)-(5)-(5)-(5)---------(7)-(7)-(7)-(7)-(7)---------||
B|----------------(5)-(5)-(5)-(5)-(5)---------(7)-(7)-(7)-(7)-(7)---------||
G|----------------(5)-(5)-(5)-(5)-(5)---------(7)-(7)-(7)-(7)-(7)---------||2x 
D|----4-4-4-4---4---------------------4/7-7/13--------------------9/10-10-||
A|------------------------------------------------------------------------||
E|--0-2-2-2-2-0-2---------------------2/5-5/11--------------------7/8--8--||

 Bridge: 
 |------alternate picking--------|   8x		Fill 1		Fill 2
e|---|---|---|---|---|---|---|-5-|-------|| |---------| |--------------|
B|-7-|-5-|-4-|---|-7-|-5-|-4-|-4-|----10-|| |---------| |----------(5)-|
G|---|---|---|-2-|---|---|---|---|-13----|| |---------| |-(5)----------|
D|-4-|-4-|-4-|-4-|-4-|-4-|-4-|---|-------|| |x-x----2-| |----(5)-------|
A|---|---|---|---|---|---|---|---|-------|| |x-x-4--2-| |-------(5)----|
E|---|---|---|---|---|---|---|---|-------|| |x-x-4----| |--------------|
						  PM


Chorus:
e|------------|------------|------------|----------------------|
B|------------|------------|------------|----------------------|
G|-------2--4-|-------2--4-|-------2--4-|-------2--14-14-14-14-|
D|-4--2--2--4-|-4--2--2--4-|-4-----2--4-|-4--2--2--------------|
A|-4--2--0--2-|-4--4--0--2-|-4--4--0--2-|-4--4--0--------------|
E|-2--0-------|-2--0-------|-2--1-------|-2--0-----------------|

Play Intro Riff during "1,2,3 bad morning"


Verse

Bridge

Chorus
 

Interlude:							4x	  4x
e|--------------------|----------9-9-|--------------------|----------|-------|
B|------10---10h12p10-|-----7-----7-7|------10---10h12p10-|----------|-------|
G|---11---------------|---8----8-----|---11---------------|-8-8-8--8-|-5/6-6-|
D|--------------------|--------------|--------------------|----------|-------|
A|-9-------9----------|-6------------|-9-------9----------|-6-6-6--6-|-5/6-6-|
E|--------------------|--------------|--------------------|----------|-------|



Solo:
 |- fast alt.pick.-| 2x
e|-------------------------||------------------------------------------------------|
B|-14-14-14-14-14----------||------------------------------------------------------|
G|----------------14-------||---------14-14h16---------14-14h16--------14-14h16/18-|
D|-------------------14-13-||-14h16-16---------14h16-16--------14h16-16------------|
A|-------------------------||------------------------------------------------------|
E|-------------------------||------------------------------------------------------|

e|--------17-14----14------------------------------------------------------|
B|-/14-17-------17----17-14-17-14----14------------------------------------|
G|--------------------------------16----16-14-16-14----14------------------|
D|--------------------------------------------------16----16-14-16--14--12-|
A|-------------------------------------------------------------------------|
E|-------------------------------------------------------------------------|

e|----------------------------------------------------------------|
B|----------------------------------------------------------------|
G|----------14----------------14-----------------------------2----|
D|-13h14p13----14-12-13h14p13----14-13-13h14-13h14-13h14----------|
A|-------------------------------------------------------2-5------|
E|----------------------------------------------------------------|
								   

Chorus (2 times):
Guitar 2 on second time:
e|------------|------------|------------|----------------------|
B|------------|------------|------------|----------------------|
G|-9--6--6--8-|-9--6--6--8-|-6--6--6--8-|-9--6--6--14-14-14-14-|
D|------------|------------|------------|----------------------|
A|-7--4--4--6-|-7--4--4--6-|-4--4--4--6-|-7--4--4--------------|
E|------------|------------|------------|----------------------|


Intro Riff
Tap to rate this tab
 
# A B C D E F G H I J K L M N O P Q R S T U V W X Y Z