Guitaretab - guitar tabs
Song name
# A B C D E F G H I J K L M N O P Q R S T U V W X Y Z

Alien Ant Farm - Games Galore tab

Alien Ant Farm
Games Galore (intro only)


Tuning:Standard

Up and down strum pattern
[ Tab from: http://www.guitaretab.com/a/alien-ant-farm/74464.html ]
e|-------------------------------------------------------------------------|
B|-8---8-8-8-8------------------------3-3----------------------------------|
G|-7---7-7-9-9-7-x-7-x--4--4--4---2h4-----4-4-4-2h4p2p0--------------------|
D|-7h9-9-9-9-9-5-x-5-x--5--5--5-----------4-4-4---------4---5/-7\-5-5/-----|
A|-7---7-7-7-7-5-x-5-x--2--2--2-----------2-2-2-------------x/-x\-x-x/-----|
E|--------------------------------------------------------0-3/-5\-3-3/-----|


e|-------------------------------------------------------------------------|
B|-8---8-8-8-8-----8------------------3-3----------------------------------|
G|-7---7-7-9-9-7-x-7-x--4--4--4---2h4-----4-4-4-2h4p2p0--------------------|
D|-7h9-9-9-9-9-5-x-5-x-5--5--5-----------4-4-4---------4---5/-7\-5-5/-----|
A|-7---7-7-7-7-5-x-5-x--2--2--2-----------2-2-2-------------x/-x\-x-x/-----|
E|--------------------------------------------------------0-3/-5\-3-3/-----|


| / slide up
| \ slide down
| h hammer-on
Related for Games Galore tab