Song name
# A B C D E F G H I J K L M N O P Q R S T U V W X Y Z

Alien Ant Farm - Rubber Mallet tab

Intro
E)-----------------------------------|
B)-----------------------------------|
G)--0----0--------0------0-----------|
D)--4----4--------4------4-----------|
A)---------------------------4-------|
E)2---2------2-2------2--------5-4---|

VERSE
E)-----------------------------------------------------------------|
B)-----------------------------------------------------------------|
G)-----------------------------------------------------------------|
D)-----------------------------------------------------------------|
A)----5-----5------4------4-------5-----5--------4----4------------|
E)--2-----2----2-2-----2-----5-4-----4----4-3-3-----3---3----------|

CHORUS
E)-----------------------------------------------------------------------|
B)-----------------------------------------------------------------------|
G)-----------------------------------------------------------------------|
D)4---8---4---------------7---7--9-9---8-4--8--4--------------7---7-9-9--|
A)4---8---4---------------4------------8-4--8--4--------------4----------|
E)2---6---2--7-6-4-6-4-2--5---5--7-7---6-2--6--2-7-6-4-6-4-2--5---5-7-7--|

VERSE
E)-----------------------------------------------------------------|
B)-----------------------------------------------------------------|
G)-----------------------------------------------------------------|
D)-----------------------------------------------------------------|
A)----5-----5------4------4-------5-----5--------4----4------------|
E)--2-----2----2-2-----2-----5-4-----4----4-3-3-----3---3----------|

VERSE
E)-----------------------------------------------------------------|
B)-----------------------------------------------------------------|
G)----0-----0------0------0-------0-----0--------0----0------------|
D)----4-----4------4------4-------4-----4--------4----4------------|
A)-----------------------------------------------------------------|
E)--2-----2----2-2-----2-----5-4-----4----4-3-3-----3---3----------|


CHORUS
E)-----------------------------------------------------------------------|
B)-----------------------------------------------------------------------|
G)-----------------------------------------------------------------------|
D)4---8---4---------------7---7--9-9---8-4--8--4--------------7---7-9-9--|
A)4---8---4---------------4------------8-4--8--4--------------4----------|
E)2---6---2--7-6-4-6-4-2--5---5--7-7---6-2--6--2-7-6-4-6-4-2--5---5-7-7--|

E)------------------------------------------------------------------------|
B)------------------------------------------------------------------------|
G)------------------------------------------------------------------------|
D)------------------------------------------------------------------------|
A)------------------------------------------------------------------------|
E)x-x---x--x-x------------------------------------------------------------|


INTERLUDE(rough)
E)6----5----5---9-------|
B)8----7----6---5-------|
G)7----6----5---6-------|
D)5----4----3---7-------|
A)--------------0-------|
E)----------------------|

E)-----------------------------------|
B)-----------------------------------|
G)--0----0--------0------0-----------|
D)--4----4--------4------4-----------|
A)---------------------------4-------|
E)2---2------2-2------2--------5-4---|

CHORUS
E)-----------------------------------------------------------------------|
B)-----------------------------------------------------------------------|
G)-----------------------------------------------------------------------|
D)4---8---4---------------7---7--9-9---8-4--8--4--------------7---7-9-9--|
A)4---8---4---------------4------------8-4--8--4--------------4----------|
E)2---6---2--7-6-4-6-4-2--5---5--7-7---6-2--6--2-7-6-4-6-4-2--5---5-7-7--|

VERSE
E)-----------------------------------------------------------------|
B)-----------------------------------------------------------------|
G)----0-----0------0------0-------0-----0--------0----0------------|
D)----4-----4------4------4-------4-----4--------4----4------------|
A)---------------------------------------------------------4-------|
E)--2-----2----2-2-----2-----5-4-----4----4-3-3-----3---3----5-4-2-|

- fini -


PEACEandGOODWILL.... - m45k1ngt4p3


my email is trioofsilence@yahoo.com
Tap to rate this tab
 
# A B C D E F G H I J K L M N O P Q R S T U V W X Y Z