Song name
# A B C D E F G H I J K L M N O P Q R S T U V W X Y Z

Alien Sex Fiend - Ignore The Machine tab

-------------------------------------------------------------------------------
			     Ignore the Machine  - Alien Sex Fiend 
                                (Altered States of America)
-------------------------------------------------------------------------------
Tabbed by:motallero
Email:motallero@hotmail.com   

Tuning:EADGBE
 I. I live in Siberia...
 II.Couldn't get to sleep this morning....
e|---------------------------------------------------------------------------|
B|---------------------------------------------------------------------------|
G|-5-555-5-5--/5-55-555--------------------7-77-7777-77-888------------------|
D|-5-555-5-5-3/5-55-555--------------------7-77-7777-77-888------------------|
A|-3-333-3-3-1/3-33-333repeat----------->--5-55-5555-55-666---(start-over)---|
E|---------------------------------------------------------------------------|

e|---------------------------------------------------------------------------|
B|---------------------------------------------------------------------------|
G|-5-555-5-5--/5-55-555------------------------------------------------------|
D|-5-555-5-5-3/5-55-555------------(77777)------------------------------------|
A|-3-333-3-3-1/3-33-333--888-6h88-8-88888------------------------------------|
E|-----------------------666-6-66-5-55555-return-to-beginning----------------|
guitar 'solo' 
e|---------------------------------------------------------------------------|
B|---------------------------------------------------------------------------|
G|-5-5-5-555-3-33-2-2------------------5---5---------------------------------|
D|--------------------3/5-repeat-5\3-3---3------3\2-2p0----------------------|
A|-------------------------------------------------------3-------------------|
E|---------------------------------------------------------------------------|


Sunrise come every morning
Bringing back the warmth(shit) to the ground

I live in Siberia,
Through no fault of my own.
We're a blank generation,
In the danger zone
Paracidal slumbers from 7 to 23...
Only the blind follow me.

Abyssinia in the morning,
Breakfast in Berlin.
Oh!
You leave me dying...

'Cos everybody wants
what everybody's got
And everybody's got what everybody wants
Soldier lies bleeding where
a church once stood
[ Find more Lyrics at www.mp3lyrics.org/cgn ]
Ignore the machine
Ignore the machine.

Couldn't get to sleep this morning
I watched the sky
I couldn't see
There weren't no warning
I watched you burn last night.

'Cos everybody's got
what everybody wants
Everybody wants what everybody's got
Soldier lies bleeding where
a church once stood
Ignore the machine
Ignore.

Everybody wants what everybody's got
& everybody's got what everybody needs
Soldier lies bleeding
Oh you leave me dying.

Everybody's got what everybody wants
Everybody wants what everybody's got
Everybody wants what everybody's got
& everybody needs.

(Wade/Wade/James/Freshwater)

| /  slide up
| \  slide down
| h  hammer-on
| p  pull-off
| ~  vibrato
| +  harmonic
| x  Mute note
===============================================================================
Tap to rate this tab
# A B C D E F G H I J K L M N O P Q R S T U V W X Y Z