Song name
# A B C D E F G H I J K L M N O P Q R S T U V W X Y Z

Alien - Tears Dont Put Out The Fire tab

Alien - Tears Don't Put Out The Fire
From the album Alien (1988)

m = mute
p = pull off
h = hammer on
/ = slide

Intro/Verse
e|----------------------------------------------------------------------|
B|----------------------------------------------------------------------|
G|----------------------------------------------------------------------|
D|----------------m6----------------m8----------------m6----------------|
A|-m8--m8---m8-m8----m8--m8---m8-m8----m8--m8---m8-m8----m8-m8--11-10-6-|
E|----------------------------------------------------------------------|

Pre-Chrous
e|----------|
B|----------|
G|-6----6/8-|
D|-6----6/8-|
A|-4----4/6-|
E|----------|

Chorus
e|----------------  ---------------------------------|
B|----------------  ---------------------------------|
G|----6--8------8-  -----6-----6---6-----8-----8---8-|
D|-3--6--8------8-x3-----6-----6---6-----8-----8---8-|
A|-3--4--6----6---  -4-4---4-4---4---6-6---6-6---6---|
E|-1--------------  ---------------------------------|

Solo
e|-13-----13-18-20-22-----------13-11----------------------|
B|-----------------------11-b13-------13----11-13-16-15-18-|
G|---------------------------------------------------------|
D|---------------------------------------------------------|
A|---------------------------------------------------------|
E|---------------------------------------------------------|

e|----18p16-------18p16------------------------------|
B|-16-------18p16-------18p16--15h16p15-13h15p13-----|
G|------------------------------------------------15-|
D|---------------------------------------------------|
A|---------------------------------------------------|
E|---------------------------------------------------|

vocals come back in

e|--------13-11-------------------------------|
B|-11-b13-------13-----15--18-----------------|slide down neck
G|--------------------------------------------|
D|--------------------------------------------|
A|--------------------------------------------|
E|--------------------------------------------|
Tap to rate this tab
 
# A B C D E F G H I J K L M N O P Q R S T U V W X Y Z