Alin Coen - Wolken tab

----------------------
  Wolken - Alin Coen
----------------------
Tabbed by: El Bueblo
Email: elbueblo@gmail.com

Tuning: Standard, Capo on 2nd Fret

Beautiful Song. Not too difficult. Enjoy!

INTRO
                                                    3x
e|----3-------------------|-------------------------||
B|--------0-------3-------|----5-----------5--------||
G|--4-------4---------0---|--------0-----------0---:||
D|2-----2-------4-------4-|--5-------5---5-------0-:||
A|------------2-----2-----|3-----3-----3-----3------||
E|------------------------|-------------------------||

e|------------------------|------------------------||
B|------------------------|------------------------||
G|----4-----------5-------|----4-----------4-------||
D|--------0-----------0---|--------0-----------0---||
A|--5-------5---5-------5-|--5-------5---5-------5-||
E|3-----3-----3-----3-----|3-----3-----3-----3-----||


VERSE 1 as INTRO

Komm mit mir mit wir gehen
irgendwohin und dann
schauen wir hoch und seh'n
uns die Wolken an


VERSE 2 as INTRO

Ich nehme dich bei der Hand und ziehe dich
hinter mit her ich frage mich
warum fällt es so schwer
ich glaube du willst nicht mehr


BRIDGE
                                                    3x
e|------------------------|-------------------------||
B|----1-----------3-------|----5-----------5--------||
G|--------2-----------0---|--------0-----------0---:||
D|--2-------0---4-------0-|--5-------5---5-------0-:||
A|0-----0-----2-----2-----|3-----3-----3-----3------||
E|------------------------|-------------------------||

e|------------------------|------------------------||
B|------------------------|------------------------||
G|----4-----------5-------|----4-----------4-------||
D|--------0-----------0---|--------0-----------0---||
A|--5-------5---5-------5-|--5-------5---5-------5-||
E|3-----3-----3-----3-----|3-----3-----3-----3-----||

Ist dein Wesen für alle so
schwer zu lesen.
Wenn ich's nicht verstehen kann,
wie fühlt's sich für dich dann an.


B-PART

e|------------------------|------------------------------------|
B|8-----8-------8-------8-|12-------12----------12----------12-|
G|--9-----9-------9-9-----|---12-------12-12-------12-12-------|
D|----------9-------------|------------------------------------|
A|------------------------|------10----------10----------10----|
E|8---8-------8-------8---|------------------------------------|

e|------------------------|------------------------|
B|8-----8-------8-------8-|7-------7-------7-----7-|
G|--9-----9-------9-9-----|--7-------7-------7-----|
D|----------9-------------|----7-------7-------7---|
A|7---7-------7-------7---|------------------------|
E|------------------------|7-----7-------7---------|

e|----5-----------3-------|----0-----------0-------|
B|5-----5-----3-----3-----|3-----3-----3-----3-----|
G|--5-----5-----4-----4---|--2-----2-----2-----2---|
D|------------------------|------------------------|
A|------------------------|----------0-2---------2-|
E|5---------5-3---------3-|------------------------|

e|----0-----------0-------|----0-----------0-------|
B|3-----3-----3-----3-----|3-----3-----3-----3-----|
G|--2-----2-----0-----0---|--2-----2-----2-----2---|
D|------------------------|------------------------|
A|3---------3-----------3-|----------3-----------3-|
E|------------------------|------------------------|

Und wenn du dann gehst,
schau ich dir nach,
schau wie das Ende verdreht,
was der Anfang versprach.

Das Wetter wird wieder
wolkig bis heiter.

Die Wolken zieh'n weiter.


OUTRO as Intro
Tap to rate this tab
 
# A B C D E F G H I J K L M N O P Q R S T U V W X Y Z