Alin Coen - Festhalten tab

-------------------------------------------------------------------------------
			     Festhalten - Alin Coen Band
-------------------------------------------------------------------------------
Tabbed by: nslagoda
Email:----
Der Tab ist eine Mischung aus der liveversion bei Inas Nacht und der originalversion,
wobei sich diese nicht wirklich unterscheiden.

Tuning: EADGBe
Intro+Strophe
   F          C              Gm
e|---------------------------------------------------------------------------|
B|------1-----------1--------------2-----------2-----------------------------|
G|----2-----0---------0---0----------2---2-------2---2-----------------------|
D|--3-----3-----2-------2--------0-----0-----0-----0-------------------------|
A|------------3--------------------------------------------------------------|
E|---------------------------3-------------3---------------------------------|

Bridge1
   Bb                       Gm (Vor Refrain 2x)
e|-------------------------------------------------------------------------------|
B|------3-----------3-----------2-----------2------------------------------------|
G|--------3---3-------3---3-------2---2-------2---2------------------------------|
D|----3-----3-----3-----3-----0-----0-----0-----0--------------------------------|
A|--1-----------1----------------------------------------------------------------|
E|--------------------------3-----------3----------------------------------------|
Refrain
   D         Am7           F (3.Bund)   Gm (5. Bund)
e|------0---------3-------------5------------6-------------------------------|
B|--------3---------1-------------6----------8-------------------------------|
G|----2-----2---0-----0------5------5------7---------------------------------|
D|--0---------2---------2--3----------3--5-----------------------------------|
A|---------------------------------------------------------------------------|
E|---------------------------------------------------------------------------|
Bridge2
    Bb          C
e|---------------------------------------------------------------------------|
B|------3----------3---------------------------------------------------------|
G|------3----------3---------------------------------------------------------|
D|--0----------0-------------------------------------------------------------|
A|----1----------3-----------------------------------------------------------|
E|---------------------------------------------------------------------------|

Danach selbes wie Intro+Strophe
Bridge1
Refrain
Bridge2
Intro+Stophe
Tap to rate this tab
 
# A B C D E F G H I J K L M N O P Q R S T U V W X Y Z