Song name
# A B C D E F G H I J K L M N O P Q R S T U V W X Y Z

Alison Krauss - Baby Now That Ive Found You tab

-----------------------------------------------------------|
--------10-10------------------10---------------10---------|
-7h9s11-------7----7-9h11--12------12--11s9--7-----7-7-----|
-----------------------------------------------------------|
-----------------------------------------------------------|
-----------------------------------------------------------|

--------------------------------------7--------------------|
-------8s10-8----------10----------------------------------|
-7s6s7--------10-9--7------7-7----7h9---9-9--9s7-----------|
-----------------------------------------------------------|
-----------------------------------------------------------|
-----------------------------------------------------------|

-10--7---5-------------------------------------------------|
-8---8---5-------------------------------------------------|
------------5h7--5-----------------------------------------|
--------------------7--------------------------------------|
-----------------------------------------------------------|
-----------------------------------------------------------|


please be guided accordingly, some of the tabs here are incorrect, so I created my own.. 
to the song to check.. ;D This is 98% correct, believe me. Good Luck and have fun! 
new year everyone! --addchan88@yahoo.com.
Tap to rate this tab
# A B C D E F G H I J K L M N O P Q R S T U V W X Y Z