Guitaretab - guitar tabs
Song name
# A B C D E F G H I J K L M N O P Q R S T U V W X Y Z

Alison Krauss - Killing The Blues tab

------------------------------------------------------------------------------
       Killing the Blues - Alison Krauss & Robert Plant
-------------------------------------------------------------------------------
Tabbed by:eboswald
Email:

Tuning:Standard

Intro Played twice over a strummed D  Chord

e--10--------------------|
B-----10--8--7-------7---|
G---------------7H9------|
D------------------------|
A------------------------|
E------------------------|

Leaves were {D}falling just like embers
In colors red and gold they set us on {G}fire
Burning just like a {D}moonbeam in our eyes
{A}Somebody said they saw me
{D}Swinging the world by the {G}tail
Bouncing over a {D}white cloud
{A}Killing the blues{D}

Now I am {D}guilty of something
I hope you never do
Because there is {G}nothing
Sadder than {D}losing yourself in love
{A}Somebody said they saw me
{D}Swinging the world by the {G}tail
Bouncing over a {D}white cloud
{A}Killing the blues{D}


Instrumental verse (the way I like to play it)

[ Tab from: http://www.guitaretab.com/a/alison-krauss/165051.html ]
  {D}           {D}           {D}                            {G}
e|-------------|-------------|-----------------|---------------|
B|-------------|-------------|-----------------|---------------|
G|-2--0--------|-2--0--------|-----------------|---------------|
D|-------4-----|-------4-----|-4-4-4-2-4-5--4--|-4-4-2-0--0----|
A|-----------5-|----------5--|-----------------|-------------2-|
E|-------------|-------------|-----------------|---------------|

         {D}       {A}
e|----------------|---------------|------------|
B|----------------|-5-5-5-5-5-7-5-|-7-7-7-7--8-|
G|----------------|-6-6-6-6-7-7-6-|-7-7-7-7--7-|
D|-5-5-5--4-2-0---|---------------|------------|
A|--------------0-|---------------|------------|
E|----------------|---------------|------------|

e|-------------------------------|
B|-8-8-8-7-5---------------------|
G|-----------7-------------------|
D|-------------7---5-5-5-4-2-0---|
A|-------------------------------|
E|-------------------------------|


{D}Now, you ask me just to leave you
To go out on my own and get what I {G}need to
You want me to {D}find what Iíve already had
{A}Somebody said they saw me
{D}Swinging the world by the {G}tail
Bouncing over a {D}white cloud
{A}Killing the blues{D}

{A}Somebody said they saw me
{D}Swinging the world by the {G}tail
Bouncing over a {D}white cloud
{A}Killing the blues{D}
Related for Killing The Blues tab