Song name
# A B C D E F G H I J K L M N O P Q R S T U V W X Y Z

Alison Krauss - Ill Fly Away tab

-----------------------------------------------------------------------------
		       I'll Fly Away - Alison Krauss  
-----------------------------------------------------------------------------
                         Tabbed by: Cade_nickels



Tuning: standard (EADGBe)

    
    G                                   C                 G
e|----3---3---3---3-|-----------|-------0-0-0-0---------|--3-3-3--3-3-3-|
B|--0-0---0---0---0-|-0---0-3-0-|-------1-1-1-1---------|--0-0-0--0-0-0-|
G|------0-------0---|---2-------|-------0-0-0-0-0-------|--0-0-0--0-0-0-|
D|----------0-------|-----------|-------2-2-2-2---0h2-0-|---------------|
A|------------------|-----------|---0-2-3---------------|-2-------------|
E|------------------|-----------|-3---------------------|--------3------|

    G                                   C                 G
e|----3---3---3---3-|-----------|-------0-0-0-0---------|--3-3-3--3-3-3-|
B|--0-0---0---0---0-|-0---0-3-0-|-------1-1-1-1---------|--0-0-0--0-0-0-|
G|------0-------0---|---2-------|-------0-0-0-0-0-0h2-0-|--0-0-0--0-0-0-|
D|----------0-------|-----------|-------2-2-2-2---------|---------------|
A|------------------|-----------|---0-2-3---------------|-2-------------|
E|------------------|-----------|-3---------------------|--------3------|

    D
e|------------|------------------|---------|
B|--1/3-3-3-3-|-1-1-2-3--1-1-2-3-|-3-2-1-1-|
G|--2/4-4-4-4-|-0-2-3-4--0-2-3-4-|-4-3-2-0-|
D|------------|------------------|---------|
A|------------|------------------|---------|
E|------------|------------------|---------|

    C                    G
e|--0-0--0-0-0---------|-3----------|
B|--1-1--1-1-1---------|-0-0--------|
G|--0-0--0-0-0-3-0-2-0-|-0----------|
D|--2-2--2-2-2---------|-0---0-2--0-|
A|--3-3--3-3-3---------|-2----------|
E|---------------------|-3----------|

    G                                   C                 G
e|----3---3---3---3-|-----------|-------0-0-0-0---------|--3-3-3-3-------|
B|--0-0---0---0---0-|-0---0-3-0-|-------1-1-1-1---------|--0-0-0-0-------|
G|------0-------0---|---2-------|-------0-0-0-0-0-0h2-0-|--0-0-0-0-------|
D|----------0-------|-----------|-------2-2-2-2---------|----------------|
A|------------------|-----------|---0-2-3---------------|--2-2-2-2-2p0---|
E|------------------|-----------|-3---------------------|--3-3-3-3-----3-|


Repeat.




************************************
| /   slide up
| \   slide down
| h   hammer-on
| p   pull-off
************************************
Tap to rate this tab
 
# A B C D E F G H I J K L M N O P Q R S T U V W X Y Z