Song name
# A B C D E F G H I J K L M N O P Q R S T U V W X Y Z

Alison Krauss - When You Say Nothing At All tab

-----------------------------------------------------------------------------
When you say nothing at all - Alison Krauss 

Tabbed by: Daven Chan
Tuning: Capo on 1st

-----------------------------------------------------------------------------

Introduction:
|-----------0-|---------|---------|-----------|
|---------3---|-------3-|-------3-|-------2~3-|
|-------2-----|-----2---|-----0---|-----2-----|
|-----0-------|---2-----|---0-----|---2-------|
|-0~2---------|-0-------|---------|-0---------|
|-------------|---------|-3-------|-----------|

|-------0-|---------|---------|-----------|
|-----3---|-------3-|-------3-|-------2~3-|
|---2-----|-----2---|-----0---|-----2-----|
|-0-------|---2-----|---0-----|---2-------|
|---------|-0-------|---------|-0---------|
|---------|---------|-3-------|-----------|


|-------0-|---------|---------|-----------|
|-----3---|-------3-|-------3-|-------2~3-|
|---2-----|-----2---|-----0---|-----2-----|
|-0-------|---2-----|---0-----|---2-------|
|---------|-0-------|---------|-0---------|
|---------|---------|-3-------|-----------|
     Itís amasing how you can speak right to my heart.
|--------0-|---------|---------|-----------|
|------3---|-------3-|-------3-|-------2~3-|
|----2-----|-----2---|-----0---|-----2-----|
|--0-------|---2-----|---0-----|---2-------|
|----------|-0-------|---------|-0---------|
|----------|---------|-3-------|-----------|

|-------0-|---------|---------|-----------|
|-----3---|-------3-|-------3-|-------2~3-|
|---2-----|-----2---|-----0---|-----2-----|
|-0-------|---2-----|---0-----|---2-------|
|---------|-0-------|---------|-0---------|
|---------|---------|-3-------|-----------|
     Without saying a word,you can light up the dark.
|-------0-|---------|---------|-----------|
|-----3---|-------3-|-------3-|-------2~3-|
|---2-----|-----2---|-----0---|-----2-----|
|-0-------|---2-----|---0-----|---2-------|
|---------|-0-------|---------|-0---------|
|---------|---------|-3-------|-----------|

|-----------------|-----------------|
|---------3-------|---------2-------|
|-----0-------0---|-----2-------2---|
|---0---0---0---0-|---2---2---2---2-|
|-----------------|-0---------------|
|-3---------------|-----------------|
   Try as I may, I could never explain.

|-------0-|---------|---------|-----------------|-----------------|
|-----3---|-------3-|-------3-|---------0-------|---------2-------|
|---2-----|-----2---|-----0---|-----2-------2---|-----2-------2---|
|-0-------|---2-----|---0-----|---2---2---2---2-|---2---2---2---2-|
|---------|-0-------|---------|-0---------------|-0---------------|
|---------|---------|-3-------|-----------------|-----------------|
     What I hear when you donít say a thing.

|-------0-|---------|---------|-----------|
|-----3---|-------3-|-------3-|-------2~3-|
|---2-----|-----2---|-----0---|-----2-----|
|-0-------|---2-----|---0-----|---2-------|
|---------|-0-------|---------|-0---------|
|---------|---------|-3-------|-----------|
 The smile on your face lets me know that you need me.

|-------0-|---------|---------|-----------|
|-----3---|-------3-|-------3-|-------2~3-|
|---2-----|-----2---|-----0---|-----2-----|
|-0-------|---2-----|---0-----|---2-------|
|---------|-0-------|---------|-0---------|
|---------|---------|-3-------|-----------|
Thereís a truth in you eyes saying you never leave me.

|------0|-------|-------|-------|-----------------|-----------------|
|----3--|------3|------3|------3|---------0-------|---------2-------|
|--2----|----2--|----0--|----0--|-----2-------2---|-----2-------2---|
|0------|--2----|--0----|--0----|---2---2---2---2-|---2---2---2---2-|
|-------|0------|-------|-------|-0---------------|-0---------------|
|-------|-------|3------|3------|-----------------|-----------------|
The touch of your hand says you catch me, where ever I fall.

|---------|-------------|
|-------3-|-------3---2-|
|-----0---|-----0-----2-|
|---0-----|---0-------2-|
|---------|-----------0-|
|-3-------|-3-----------|
   You say it best:       When you say nothing at all.


|-----------0-|---------|---------|-----------|
|---------3---|-------3-|-------3-|-------2~3-|
|-------2-----|-----2---|-----0---|-----2-----|
|-----0-------|---2-----|---0-----|---2-------|
|-0~2---------|-0-------|---------|-0---------|
|-------------|---------|-3-------|-----------|

|-------0-|---------|---------|-----------|
|-----3---|-------3-|-------3-|-------2~3-|
|---2-----|-----2---|-----0---|-----2-----|
|-0-------|---2-----|---0-----|---2-------|
|---------|-0-------|---------|-0---------|
|---------|---------|-3-------|-----------|



|-------0-|---------|---------|-----------|
|-----3---|-------3-|-------3-|-------2~3-|
|---2-----|-----2---|-----0---|-----2-----|
|-0-------|---2-----|---0-----|---2-------|
|---------|-0-------|---------|-0---------|
|---------|---------|-3-------|-----------|
     All day long I can hear people talking out loud.
|-------0-|---------|---------|-----------|
|-----3---|-------3-|-------3-|-------2~3-|
|---2-----|-----2---|-----0---|-----2-----|
|-0-------|---2-----|---0-----|---2-------|
|---------|-0-------|---------|-0---------|
|---------|---------|-3-------|-----------|

|-------0-|---------|---------|-----------|
|-----3---|-------3-|-------3-|-------2~3-|
|---2-----|-----2---|-----0---|-----2-----|
|-0-------|---2-----|---0-----|---2-------|
|---------|-0-------|---------|-0---------|
|---------|---------|-3-------|-----------|
     But when you hold me near, you drown out the crowd. 

|-----------------|-----------------|
|---------3-------|---------2-------|
|-----0-------0---|-----2-------2---|
|---0---0---0---0-|---2---2---2---2-|
|-----------------|-0---------------|
|-3---------------|-----------------|
   Old Mr. Webster could never define.

|-------0-|---------|---------|-----------2--~-|
|-----3---|-------3-|-------3-|-----------2--~-|
|---2-----|-----2---|-----0---|-----2-----2--~-|
|-0-------|---2-----|---0-----|---2---2------~-|
|---------|-0-------|---------|-0------------~-|
|---------|---------|-3-------|--------------~-|
     Whatís being said between your heart and mine.

|-------0-|---------|---------|-----------|
|-----3---|-------3-|-------3-|-------2~3-|
|---2-----|-----2---|-----0---|-----2-----|
|-0-------|---2-----|---0-----|---2-------|
|---------|-0-------|---------|-0---------|
|---------|---------|-3-------|-----------|
 The smile on your face lets me know that you need me.

|-------0-|---------|---------|-----------|
|-----3---|-------3-|-------3-|-------2~3-|
|---2-----|-----2---|-----0---|-----2-----|
|-0-------|---2-----|---0-----|---2-------|
|---------|-0-------|---------|-0---------|
|---------|---------|-3-------|-----------|
Thereís a truth in you eyes saying you never leave me.

|------0|-------|-------|-------|-----------------|-----------------|
|----3--|------3|------3|------3|--------0--------|---------2-------|
|--2----|----2--|----0--|----0--|----2-------2----|-----2-------2---|
|0------|--2----|--0----|--0----|---2---2---2---2-|---2---2---2---2-|
|-------|0------|-------|-------|-0---------------|-0---------------|
|-------|-------|3------|3------|-----------------|-----------------|
The touch of your hand says you catch me, where ever I fall.

|---------|--------------~-|
|-------3-|-------3---2--~-|
|-----0---|-----0-----2--~-|
|---0-----|---0-------2--~-|
|---------|-----------0--~-|
|-3-------|-3------------~-|
   You say it best:       When you say nothing at all.


|-------0-|---------|---------|-----------|
|-----3---|-------3-|-------3-|-------2~3-|
|---2-----|-----2---|-----0---|-----2-----|
|-0-------|---2-----|---0-----|---2-------|
|---------|-0-------|---------|-0---------|
|---------|---------|-3-------|-----------|

|-------0-|---------|---------|-----------|
|-----3---|-------3-|-------3-|-------2~3-|
|---2-----|-----2---|-----0---|-----2-----|
|-0-------|---2-----|---0-----|---2-------|
|---------|-0-------|---------|-0---------|
|---------|---------|-3-------|-----------|

|------0|-------|-------|-------|-----------------|----------------~-|
|----3--|------3|------3|------3|---------0-------|---------2------~-|
|--2----|----2--|----0--|----0--|-----2-------2---|-----2-------2--~-|
|0------|--2----|--0----|--0----|---2---2---2---2-|---2---2---2----~-|
|-------|0------|-------|-------|-0---------------|-0--------------~-|
|-------|-------|3------|3------|-----------------|----------------~-|


|-------0-|---------|---------|-----------|
|-----3---|-------3-|-------3-|-------2~3-|
|---2-----|-----2---|-----0---|-----2-----|
|-0-------|---2-----|---0-----|---2-------|
|---------|-0-------|---------|-0---------|
|---------|---------|-3-------|-----------|
 The smile on your face lets me know that you need me.

|-------0-|---------|----------~-~-~-|
|-----3---|-------3-|-------3--~-~-~-|
|---2-----|-----2---|-----0----~-~-~-|
|-0-------|---2-----|---0------~-~-~-|
|---------|-0-------|----------~-~-~-|
|---------|---------|-3--------~-~-~-|
Thereís a trueth in you eyes saying you never leave me.

|-----5--0~2--0-------------|---------|---------------|
|---3-----------3-------3---|---------|---------------|
|-2---------------2---2-----|-----2---|-----0-------0-|
|-------------------4-----4-|---2---2-|---0---0---0---|
|---------------------------|-0-------|---------------|
|---------------------------|---------|-3-------3-----|
                   The touch of your hand says you catch me, where ever I 

|---------------|---------~---------|
|-----0---------|------3--~-----2~3-|
|-------2-----2-|------0--~-----2---|
|---2-------2---|---0-----~---2-----|
|-0-------0-----|---------~-0-------|
|---------------|-3-------~---------|
 fall~~~

|---------|--------------~-|
|-------3-|-------3---2--~-|
|-----0---|-----0-----2--~-|
|---0-----|---0-------2--~-|
|---------|-----------0--~-|
|-3-------|-3------------~-|
   You say it best:       When you say nothing at all.


|-----------0-|---------|---------|
|---------3---|-------3-|-------3-|
|-------2-----|-----2---|-----0---|
|-----0-------|---2-----|---0-----|
|-0~2---------|-0-------|---------|
|-------------|---------|-3-------|

|-----------0-|---------|------------|---------------|------0~2-|
|---------3---|-------3-|----------3-|-----------2~3-|-----3----|
|-------2-----|-----2---|-------0----|--------2------|----2-----|
|-----0-------|---2-----|----0-------|-----2---------|---0------|
|-0~2---------|-0-------|------------|-0-------------|--0-------|
|-------------|---------|-3----------|---------------|-0--------|
Tap to rate this tab
 
# A B C D E F G H I J K L M N O P Q R S T U V W X Y Z