Song name
# A B C D E F G H I J K L M N O P Q R S T U V W X Y Z

Alison Krauss - Oh Atlanta tab

Oh, Atlanta - Alison Krauss
(metonymo tab)


Capo 1. fret

Intro:

    A
    :   .   .   .
----5-----------5----|
----5-----------5----|
------------5h6------|
--------7------------|
-0----------0--------|
---------------------|

  :   .   .   .   :   .   .   .   :   .   .   .   :   .   .   .
----5---------5-----5---------5-----5---------5-----5---------5----|
-------------------------------------------------------------------|
----------5h6-------------5h6-------------5h6-------------5h6------|
------7-------7-------7-------7-------7-------7-------7-------7----|
--0-------0-------0-------0-------0-------0-------0-------0--------|
-------------------------------------------------------------------|


First verse:

  A
  :   .   .   .   :   .   .   .   :   .   .   .   :   .   .   .
----5---------5-----5---------5-----5---------5-----5-------5------|
-------------------------------------------------------------------|
----------5h6-------------5h6-------------5h6----------------------|
------7-------7-------7-------7-------7-------7-------7-------7----|
--0-------0-------0-------0-------0-------0-------0-------0--------|
-------------------------------------------------------------------|
Same old place                  same old city

  D                                               A
  :   .   .   .   :   .   .   .   :   .   .   .   :   .   .   .
--------5---5---5-------5---5---5-------5---5---5-------5-----5----|
-------------------------------------------------------------------|
----------------------------------------------------------5h6------|
------7-------7-------7-------7-------7-------7-------7-------7----|
--5-------5-------5-------5-------5-------5-------0-------0--------|
-------------------------------------------------------------------|
  What can I do,              I'm fallin  in  love

  :   .   .   .   :   .   .   .   :   .   .   .   :   .   .   .
----5---------5-----5---------5-----5---------5-----5-------5------|
-------------------------------------------------------------------|
----------5h6-------------5h6-------------5h6----------------------|
------7-------7-------7-------7-------7-------7-------7-------7----|
--0-------0-------0-------0-------0-------0-------0-------0--------|
-------------------------------------------------------------------|
  I'm  just and old hound dog,      roamin around oh, Lord

  D                                               A           D    A
  :   .   .   .   :   .   .   .   :   .   .   .   :   .   .   .    :
--------5---5---5-------5---5---5-------5---5-----------5----------5----|
--------------------------------------------------------------7----5----|
--------------------------------------------------------------7----6----|
------7-------7-------7-------7-------7-------7-------7-------7----7----|
--5-------5-------5-------5-------5-------5-------0-------0---5----7----|
-------------------------------------------------------------------5----|
  I've  got  all this         and  heaven   ab- o -v-e       Oh, Atlanta


Or, instead of finger picking, to place accent on the a-note of the first
verse, the intro an first verse could be played using open chords with
these fingerings:
     A  x02225
     D  xx0235
(Index finger makes a half barre on the second fret, and the little finger
is used on the fifth fret.)


And,


The ascending line, (E9,D#) D-D#-E-F-F#-G-G#-A:

  E(9)   D#   D   D#  E   F   F#  G   G#  A   A
  .   .   .   .   .   .   .   .   .   .   .   .
-(7)----------------------------------------------|
--7------8------------------------------------5---|
--7------8----7---8---9---10--11--12--13--14\-6---|
--6------8----------------------------------\-7---|
--7------6----5---6---7---8---9---10--11--12\-7---|
----------------------------------------------5---|

Or for a twelve fretted guitar:

  E(9)   D#   D   D#  E   F   F#  G   G#  A   A
  :   .   .   .   :   .   .   .   .   .   .   .
-(7)------------------------------------------5---|
--7------8------------------------------------5---|
--7------8----7---8---9-----------------------6---|
--6------8----------------3---4---5---6---7---7---|
--7------6----5---6---7-----------------------7---|
--------------------------1---2---3---4---5---5---|



Oh, Atlanta
Alison Krauss, capo 1. band

Open and barre chords:

A   x02220/x02225/577655
D   xx0232/xx0235/x57775
D6  xx0202/      /x57777 (or use A6: x02222/575675)
E9  020102/      /x7677x

A
Same old place, same old city
D                            A
What can I do, I'm fallin in love
I'm just and old hound dog, roamin around oh, Lord
D                             A
I've got all this and heaven above

     D     A                 E7
     Oh, Atlanta, I hear you callin
         D                          H(7)
     I'm comin back to you one fine day
                A     D6 A                E(9)
     No need to worry,     there ain't no hurry
           D#     (D-D#-E-F-F#-G-G#-A)
     Cause I'm...
     A                        D6  A
     On my way back to Georgia      ('djor-dji-dju')
                              D6  A
     On my way back to Georgia

I get a feelin in me, when I remember all those
Crazy days and crazier nights
Can't you hear the music playin, you must have heard them sayin'
'We're gonna rip'em up and light up the night'

     Chorus

     Instrumental (Verse and four first lines of chorus)

Same old place, It's the same old city.
What can I do? I'm falling in love.
I'm just an old hound dog, roaming around.  Lord, Lord!
I've got on this and heaven above.

     D     A                 E7
     Oh, Atlanta, I hear you callin
         D                          H(7)
     I'm comin back to you one fine day
                        A     D6  A                E(9)
     Hey, don't need to worry,      there ain't no hurry.
            D#  (D-D#-E-F-F#-G-G#-A)
     Cause, I'm                 Well,
     D A                 E7
       Atlanta!  hear me calling.
         D                            H(7)
     I'm coming back to you, one fine day.
                        A     D6 A                E(9)
     Hey, don't need to worry,     there ain't no hurry.
             D#     (D-D#-E-F-F#-G-G#-A)
     'Cause, I'm
     A                         D6 A
      On my way back to Georgia.
     A                         D#  D-D#-E-F-F#-G-G#-A
      On my way back to Georgia.
Tap to rate this tab
# A B C D E F G H I J K L M N O P Q R S T U V W X Y Z