Guitaretab - guitar tabs
Song name
# A B C D E F G H I J K L M N O P Q R S T U V W X Y Z

Alison Krauss - Let Me Touch You For Awhile tab

LET ME TOUCH YOU FOR AWHILE
Alison Krauss & Union Station on NEW FAVORITE

Tabbed by: ZootCst
Email: Nathankyle@hotmail.com

CAPO 4th fret : chords = relative to capo.

Use these chord voicings for the chorus & bridge:
  D    B7/D#  Em  Fadd9   Em   Em/D#  Em/D A/C#
|-2-----2-----0-----3--| |-0-----0------0--------|
|-3-----0-----0-----1--| |-0-----0------0----2---|
|-2-----2-----0-----2--| |-0-----0------0----2---|
|-0-----1-----2-----3--| |-2-----1------0----2---|
|----------------------| |-------------------4---|
|----------------------| |-----------------------|


Play this for the intro and first part of the first verse.
You can also throw it in on later Em  C changes during verses and on the
Last lyric line.

  Em (Em add9)                                        C (Cmaj7#11)
    ________    ________                 ________     ________    ________
   |  |  |  |  |  |  |  |   |     |     |  |  |  |   |  |  |  |  |  |  |  |
||:-----------------------0|------------------------|----------------------|
||:--------------------0---|------------------------|--------------------0-|
||:-----------0-----0------|-----------------------0|-----------0----------|
||:--------4-----4---------|--------------------4---|--------4--------4----|
||:-----2------------------|-----------------2------|-----3--------3-------|
||:--0---------------------|--------------0---------|--0-------------------|


                             ________    ________                 ________
   |     |     |     |      |  |  |  |  |  |  |  |   |     |     |  |  |  |
|------------------------|-----------------------0|------------------------|
|------------------------|------------------------|------------------------|
|------------------------|-----------0--------0---|-----------------------0|
|------------------------|--------4--------4------|--------------------4---|
|------------------------|-----2--------2---------|-----------------2------|
|------------------------|--0---------------------|--------------0---------|

[ Tab from: http://www.guitaretab.com/a/alison-krauss/82149.html ]
    ________    ________                 ________ 
   |  |  |  |  |  |  |  |   |     |     |  |  |  | (repeat)
|-----------------------0|-------------------------:||
|--------------------0---|-------------------------:||
|-----------0------------|-----------------------0-:||
|--------4--------4------|--------------------4----:||
|-----3--------3---------|-----------------3-------:||
|--0---------------------|--------------0----------:||

VS1:
Em                     C
Its been a long time coming
Em                      C
As you shed a lonesome tear
G                        C
And now you're in a wonder-ama
G                          C
I wonder what you're doing here

VS2:
Em                    C
The flame no longer flickers
G                           C
You're feeling just like a fool
G                           C
You keep staring into your liqour
G                 C
Wondering what to do

CH:
D                      C
I don't hardly know you but I'd be willing to show you
D        B7/D#           Em  F
I know a way to make you smile
D                       G    C  Em  C
Let me touch you for a while

VS3:
Em                         C
I'm gonna ruin my black mascara
Em                                        C
You're drinking whiskey when it should be wine
G                              C
You keep on looking into that mirror
Em                                   C
But to me you're looking really fine

CH/Bridge:
D                       C
I don't hardly know you, but I'd be willing to show you
D        B7/D#             Em           Em/D#
I know a way to make you laugh at that cowgirl
         Em/D             A/C#
As she's walking out the door
C         D               Em
I know a way to make you smile
             Em/D#                 Em/D          A/C#
Just let me whisper things you've never heard before
C            D             F             D              G
Just let me touch you baby, just let me touch you for awhile

DOBRO solo: 
C Em C G C Em C

CH:
D                      C
I don't hardly know you, but I'd be willing to show you
D        B7/D#             Em  Fadd9
I know a way to make you smile
Em                   C                            Em   C
Its been a long time baby, let me touch you for awhile

G C G

END
Related for Let Me Touch You For Awhile tab