Guitaretab - guitar tabs
Song name
# A B C D E F G H I J K L M N O P Q R S T U V W X Y Z

Alistair Griffin - Secrets Inside tab

V
         G                C(add9)               G               Em7
E--------3---------|---------3--------|---------3--------|--------3-------|
B-----3-----3---3--|------3-----3---3-|-----3------3---3-|-----3----3---3-|
G---0---------0----|---0----------0---|---0----------0---|---0--------0---|
D------------------|------------------|------------------|----------------|
A------------------|-3----------------|------------------|-2--------------|
E-3----------------|------------------|-3----------------|----------------|
         G               C(add9)               D                 C(add9)
E--------3---------|---------3--------|---------2---------|---------3-------|
B-----3-----3---3--|------3-----3---3-|------3-----3----3-|-----3-----3---3-|
G---0---------0----|---0----------0---|---2-----------2---|---0----------0--|
D------------------|------------------|-0-----------------|-----------------|
A------------------|-3----------------|-------------------|-3---------------|
E-3----------------|------------------|-------------------|-----------------|
[ Tab from: http://www.guitaretab.com/a/alistair-griffin/63192.html ]
PC
         G                 Em7               C(add9)               D
E---------3--------|---------3--------|---------3---------|---------2-------|
B-----3--------3---|-----3--------3---|-----3--------3----|-----3-------3---|
G---0---0----0---0-|---0---0----0---0-|---0---0----0---0--|---2---2---2---2-|
D------------------|------------------|-------------------|-0---------------|
A------------------|-2----------------|-3-----------------|-----------------|
E-3----------------|------------------|-------------------|-----------------|
         G                 Em7               C(add9)               D
E---------3--------|---------3--------|---------3---------|---------2-------|
B-----3--------3---|-----3--------3---|-----3--------3----|-----3-------3---|
G---0---0----0---0-|---0---0----0---0-|---0---0----0---0--|---2---2---2---2-|
D------------------|------------------|-------------------|-0---------------|
A------------------|-2----------------|-3-----------------|-----------------|
E-3----------------|------------------|-------------------|-----------------|

C
         G                 D                   Em7               C(add9)
E---------3--------|---------2--------|---------3---------|---------3-------|
B-----3-------3----|-----3-------3----|-----3-------3-----|-----3-------3---|
G---0---0---0---0--|---2---2---2---2--|---0---0---0---0---|---0---0---0---0-|
D------------------|-0----------------|-------------------|-----------------|
A------------------|------------------|-2-----------------|-3---------------|
E-3----------------|------------------|-------------------|-----------------|
 G                 D                   Em7               C(add9)
E---------3--------|---------2--------|---------3---------|---------3-------|
B-----3-------3----|-----3-------3----|-----3-------3-----|-----3-------3---|
G---0---0---0---0--|---2---2---2---2--|---0---0---0---0---|---0---0---0---0-|
D------------------|-0----------------|-------------------|-----------------|
A------------------|------------------|-2-----------------|-3---------------|
E-3----------------|------------------|-------------------|-----------------|


[V]
So quiet, but I can't sleep
Half naked, your secrets keep
So helpless, I touch your lips
Never tasted a love like this

[PC]
Then softly you rise and open your eyes
Oh won't you let me slip inside?
You feel it, you can't deny

[C]
But don't ask me why
Stay with me tonight
Sometimes you find, you've got to hide the secrets inside

Still dreaming, i lay with you
Showed my feelings, you looked straight through

Then closing your eyes, you try to disguise
All of those things you hold iside
You want to, you can't deny

But dont ask me why
Stay with me tonight
Sometimes you find, you've got to hide the secrets inside (x3)
Related for Secrets Inside tab
Advertisement will be closed in 10 seconds