Song name
# A B C D E F G H I J K L M N O P Q R S T U V W X Y Z

Alistair Lindsay - Nemesis Quest tab

Song: Nemesis Quest
Artist: Alistair Lindsay
Tuning: Drop D
Tabbed By: GuitarHawk99
Description:

This is the tab for the song Nemesis Quest from the game Roller Coaster 
Tycoon 3,i didn't tab the solo becuse there was too much taping in it and
i couldn't hear all the notes but the rest is very accurate. Make sure you 
check out my other tab for the song "flat head four" and enjoy! 


Intro w/ dist
|-------------------|
|-------------------|
|-------------------|
|---2--1--0---------| x8
|------------4-3p0--|
|-2--2--2--2------5-|


Chorus
|-----------------------------------------------|
|-----------------------------------------------|
|-----------------------------------------------|
|--7---5h7--9-5--2-2--0-2---------0-2---------0-|
|--7---5h7--9-5--2-2--0-2---------0-2---------0-|
|--7---5h7--9-5--2-2--0-2--2-4-5--0-2--2-4-5--0-|

|------------------------------------------------------------|
|------------------------------------------------------------|
|--------------------------------------------------------0-2-|
|--7---5h7--9-5--2-2--0-2---------0-2--------------0-2-4-----|
|--7---5h7--9-5--2-2--0-2---------0-2--------0-2-3-----------|
|--7---5h7--9-5--2-2--0-2--2-4-5--0-2--2-4-5-----------------|


Verse w/ clean tone & Chorus
|-----------------------------------------------|
|----5---------5-3--------5-3-------------------|
|------7-----------------------------0------0---|
|---7--------5----------4----------2------2-----|
|-5--------3----------2----------1------3-------|
|-----------------------------------------------|

|------------------------------------------------------|
|-----5------6---6--6------5--5-5-5-----4--4-4-4-------|
|-------7----5-----5--5----4---4-4-4----3---3-3-3------|
|---7--------3-------------2------------1--------------|
|-5----------------------------------------------------|
|--------------------------------------------------19\-|



Chorus w/ dist
|-----------------------------------------------|
|-----------------------------------------------|
|-----------------------------------------------|
|--7---5h7--9-5--2-2--0-2---------0-2---------0-|
|--7---5h7--9-5--2-2--0-2---------0-2---------0-|
|--7---5h7--9-5--2-2--0-2--2-4-5--0-2--2-4-5--0-|

|------------------------------------------------------------|
|------------------------------------------------------------|
|--------------------------------------------------------0-2-|
|--7---5h7--9-5--2-2--0-2---------0-2--------------0-2-4-----|
|--7---5h7--9-5--2-2--0-2---------0-2--------0-2-3-----------|
|--7---5h7--9-5--2-2--0-2--2-4-5--0-2--2-4-5-----------------|


Verse w/ clean tone
|-----------------------------------------------|
|----5---------5-3--------5-3-------------------|
|------7-----------------------------0------0---|
|---7--------5----------4----------2------2-----|
|-5--------3----------2----------1------3-------|
|-----------------------------------------------|

|------------------------------------------------------|
|-----5------6---6--6------5--5-5-5-----4--4-4-4-------|
|-------7----5-----5--5----4---4-4-4----3---3-3-3------|
|---7--------3-------------2------------1--------------|
|-5----------------------------------------------------|
|------------------------------------------------------|


interlude
|-------------------|
|-------------------|
|-------------------|
|---2--1--0---------| x8
|------------4-3p0--|
|-2--2--2--2------5-|





Guitar Solo




Pre verse
|-------------------|
|-------------------|
|-------------------|
|---2--1--0---------| x8
|------------4-3p0--|
|-2--2--2--2------5-|



Verse w/ clean tone
|-----------------------------------------------|
|----5---------5-3--------5-3-------------------|
|------7-----------------------------0------0---|
|---7--------5----------4----------2------2-----|
|-5--------3----------2----------1------3-------|
|-----------------------------------------------|

|------------------------------------------------------|
|-----5------6---6--6------5--5-5-5-----4--4-4-4-------|
|-------7----5-----5--5----4---4-4-4----3---3-3-3------|
|---7--------3-------------2------------1--------------| x2
|-5----------------------------------------------------|
|------------------------------------------------------|

|-------------------|    |---|
|-------------------|    |---|
|-------------------|    |---|
|---2--1--0---------| x4 |-2-|
|------------4-3p0--|    |-2-|
|-2--2--2--2------5-|    |-2-|
Tap to rate this tab
# A B C D E F G H I J K L M N O P Q R S T U V W X Y Z