Song name
# A B C D E F G H I J K L M N O P Q R S T U V W X Y Z

Alistair Lindsay - Rock Like A Dude tab

Song: Rock Like a Dude
Artist: Alistair Lindsay
Tuning: Standard
Tabbed By: GuitarHawk99
Description:
This is the tab for the song Rock Like a Dude from the game roller coaster 
tycoon 3, sorry i didn't write the solo because it was hard to work out 
because of it's speed, but the rest is all by ear and thanks to the tab pros 
for this song, it helped me to simplify the intro riff. Hope you like it, 
enjoy!

Intro w/ overdrive
|--------------------------------|
|--------------------------------|
|-2---------2----2-2---------2---|
|-0-2p0-3-4-0----0-0-2p0-3-4-0---| x2
|-------------3----------------3-|
|--------------------------------|

Repeat riff again with guitar 2 playing the same riff.

Chorus Guitar 1
|---------------------------------------------------|
|---------------------------------------------------|
|---------------------------------------------------|
|-5--3-5----------------------5--3-5----------------|
|-5--3-5----------------------5--3-5--0-2-0-3-0-4-0-|
|-3--1-3----------------------3--1-3----------------|
|Guitar 2 w/ wah efect
|---------7----7--7--7--7--7------------------------|
|---------8----8--8--8--8--8------------------------|
|---------10---10-10-10-10-10-----------------------|
|---------------------------------------------------|
|---------------------------------------------------|
|---------------------------------------------------|

verse
|---------------------------------------------------------------|
|---------------------------------------------------------------|
|-2---------2----2-2---------2----------------------------------|
|-0-2p0-3-4-0----0-0-2p0-3-4-0----------------------------------|
|-------------3----------------3---7-----7---7-7--9-----9---9-9-|
|----------------------------------5-----5---5-5--7-----7---7-7-|

|--------------------------------|
|--------------------------------|
|-2---------2----2-2---------2---|
|-0-2p0-3-4-0----0-0-2p0-3-4-0---| x2
|-------------3----------------3-|
|--------------------------------|



Chorus



verse
|---------------------------------------------------------------|
|---------------------------------------------------------------|
|-2---------2----2-2---------2----------------------------------|
|-0-2p0-3-4-0----0-0-2p0-3-4-0----------------------------------|
|-------------3----------------3---7-----7---7-7--9-----9---9-9-|
|----------------------------------5-----5---5-5--7-----7---7-7-|

--------------------------------|
--------------------------------|
--------------------------------|
--------------------------------|
---7-----7---7-7--9-----9---9-9-|
---5-----5---5-5--7-----7---7-7-|



Guitar Solo



interlude
|--------------------------------------------------------------|
|--------------------------------------------------------------|
|--------------------------------------------------------------|
|--------------------------------------------------------------|
|---7-----7---7-7--9-----9---9-9--7-----7---7-7--9-----9---9-9-|
|---5-----5---5-5--7-----7---7-7--5-----5---5-5--7-----7---7-7-|


Repeat all exactly until fade out...
Tap to rate this tab
 
# A B C D E F G H I J K L M N O P Q R S T U V W X Y Z