Song name
# A B C D E F G H I J K L M N O P Q R S T U V W X Y Z

Alistair Lindsay - Summer Air tab

 SUMMER AIR - Alistair Lindsay
------------------------------------------------------------------------
Tabbed by: Jake Larkin (JakusLarkus)
E-mail: jakuslarkus@googlemail.com


This tab is for the main part of the song, played on an acoustic guitar. 
I've checked it over and over again but any comments/improvements would be highly appreciated. 
I've not really taken timings into account in this tab so it's best to listen to the song to get
a good idea of when strings are sounded. Enjoy!


Music published and distributed by Frontier Developments.


Tuning: Standard

Acoustic guitar (starts at 0:48)
e|--------------------------------------------------------------------|
B|--------------------------------------------------------------------|
G|-------9-\6~--------------------------------------------------------|
D|-----------------------------9p7h9/11\9~----------------------------|
A|--------------------------------------------------------------------|
E|--------------------------------------------------------------------|

e|--------------------------------------------------------------------|
B|--------------------------------------------------------------------|
G|--------------------------------------------------------------------|
D|--------------7--7--/9\7-----------7--------------------------------|
A|-------7h9-----------------------------/10\9--7--9--5~--/7----------|
E|--------------------------------------------------------------------|

e|--------------------------------------------------------------------|
B|--------------------------------------------------------------------|
G|-------9-\6~--------------------------------------------------------|
D|------------------------------9p7h9/11b12----9--7-------------------|
A|--------------------------------------------------------------------|
E|--------------------------------------------------------------------|

e|--------------------------------------------------------------------|
B|--------------------------------------------------------------------|
G|----------------------------9---------------------------------------|
D|-------------7--7~--h9p7-/9~~~9-------------------------------------|
A|-----7h9---------------------------------12~-h14--------------------|
E|--------------------------------------------------------------------|

e|--------------------------------------------------------------------|
B|--------------------------------------------------------------------|
G|--------------------------------------------------------------------|
D|--------------------------------------------------------------------|
A|-----9b10r9--7h9--5/7-----------------------------------------------|
E|--------------------------------------------------------------------|

e|--------------------------------------------------------------------|
B|--------------------------------------------------------------------|
G|-----9--6~----------------------------------------------------------|
D|---------------9p7h9/11p9h11p9~-------------------------------------|
A|--------------------------------------------------------------------|
E|--------------------------------------------------------------------|

e|--------------------------------------------------------------------|
B|--------------------------------------------------------------------|
G|--------------------------------------------------------------------|
D|-------------7--7---h9p7~--------7----------------------------------|
A|-----7h9---------------------------------/10\9--7--9--5/7~----------|
E|--------------------------------------------------------------------|

e|--------------------------------------------------------------------|
B|--------------------------------------------------------------------|
G|-----8/11--7~-------------------------------------------------------|
D|--------------------9p7h9/11b12----9--7-----------------------------|
A|--------------------------------------------------------------------|
E|--------------------------------------------------------------------|

e|--------------------------------------------------------------------|
B|--------------------------------------------------------------------|
G|---------------------------9----------------------------------------|
D|-------------7--7~-h9p7-/9~~~9--------------------------------------|
A|-----7h9--------------------------------12~-h14---------------------|
E|--------------------------------------------------------------------|

e|--------------------------------------------------------------------|
B|--------------------------------------------------------------------|
G|--------------------------------------------------------------------|
D|--------------------------------------------------------------------|
A|-----12--12--9b10r9--7--9--5--7~------------------------------------|
E|--------------------------------------------------------------------|

************************************

| /   slide up
| \   slide down
| h   hammer-on
| p   pull-off
| ~   vibrato
| +   harmonic
| x   Mute note
| b   Bend
| pb  Pre-bend
| br  Bend release
| pbr Pre-bend release
| brb Bend release bend

************************************
Tap to rate this tab
 
# A B C D E F G H I J K L M N O P Q R S T U V W X Y Z