Guitaretab - guitar tabs
Song name
# A B C D E F G H I J K L M N O P Q R S T U V W X Y Z

Alive In Wild Paint - Children Of Divorce tab

Highlighted       Show chord diagrams
Artist: Alive In Wild Paint
Song: Children Of Divorce
Album: Ceilings
Tabbed by: Kmilongo (kmilo1989@gmail.com)

Chords used:

  Esus4/F#    E      Bm     Asus2     A     Asus4   Dsus2     D

E||---0---|---0---|---2---|---0---|---0---|---0---|---0---|---2---||
B||---0---|---0---|---3---|---0---|---2---|---3---|---3---|---3---||
G||---2---|---1---|---4---|---2---|---2---|---2---|---2---|---2---||
D||---2---|---2---|---4---|---2---|---2---|---2---|---0---|---0---||
A||-------|---2---|---2---|---0---|---0---|---0---|-------|-------||
E||---2---|---0---|-------|-------|-------|-------|-------|-------||


Intro/Verse:

E||---------------------------|--------------------------|
B||--2--2--2--2--2--2--2--2S--|--9--9--9--9--9--9--9--9--|
G||--2--2--2--2--2--2--2--2S--|--9--9--9--9--9--9--9--9--|
D||---------------------------|--------------------------|
A||---------------------------|--------------------------|
E||---------------------------|--------------------------|

--------------------------|--------------------------|
--3--3--3--3--3--3--3--3--|--2--2--2--2--2--3--3--3--|
--4--4--4--4--4--4--4--4--|--2--2--2--2--2--2--2--2--|
--------------------------|--------------------------|
--------------------------|--------------------------|
--------------------------|--------------------------|

---------------------------|--------------------------|
--2--2--2--2--2--2--2--2S--|--9--9--9--9--9--9--9--9--|
--2--2--2--2--2--2--2--2S--|--9--9--9--9--9--9--9--9--|
---------------------------|--------------------------|
---------------------------|--------------------------|
---------------------------|--------------------------|

--------------------------|--------------------------||
--3--3--3--3--3--3--3--3--|--7--7--7--7--7--7--7--7--||
--4--4--4--4--4--4--4--4--|--7--7--7--7--7--7--7--7--||
--------------------------|--------------------------||
--------------------------|--------------------------||
--------------------------|--------------------------||


Verse 1:
[ Tab from: http://www.guitaretab.com/a/alive-in-wild-paint/114029.html ]
A                     E
We are children of divorce
Bm                 A         Asus4
Spiritual mothers, chemical fathers
A                           E
Wish I learned to love you more
Bm                   D
Lonesome brothers, trustless daughters

Interlude:

Esus4/F#, E, Bm, Asus2, E (x2)

Verse 2:

A                        E
We are children born of wars
Bm               A         Asus4
Fought in places for the faces
      A                      E
Where happiness is sold in stores
        Bm                   D
Theyíll keep you smiling if you keep buying

Chorus 1:

    Esus4/F#              E
But they canít take from you
    Dsus2             Asus2
Something inside you never knew
    Esus4/F#                E
You always have too much to prove
    Dsus2        Asus2
And never have enough to lose

D  A  Bm                D    Asus2     Dsus2
          I seem to see everything you do

Interlude:

Esus4/F#, E, Bm, Asus2, E (x2)

Verse 3:

A                    E
We are the unwritten scrolls
Bm                   A     Asus4
Background songs for dialogues
A                        E
Always wanting something more
   Bm               D
To be the stars the light shines on

Chorus 2:

    Esus4/F#              E
But they canít take from you
    Dsus2             Asus2
Something inside you never knew
    Esus4/F#        E
You have nothing to prove
     Dsus2           Asus2
And, oh, you have so much to lose

D  A  Bm                D    Asus2     Dsus2
          I seem to see everything you do
Related for Children Of Divorce tab
Children Of Divorce chords by Alive In Wild Paint