Song name
# A B C D E F G H I J K L M N O P Q R S T U V W X Y Z

Alive - Heaven City tab

www.alive.org.uk

From Manchester where the likes of Oasis and Happy Mondays come from may i present
AL!VE. They recently supported Ian Brown from the Stone Roses and are set to rock
2006.This is the opening riff from their first single 'Heaven City'. You can go on
their website 'www.alive.org.uk' and stream the video.

Intro
e|---------------------------------------------------------------|
B|---------------------------------------------------------------|
G|-------3-5-5b6rb5-p3---3----------3-5b6--5b6rb5-3--------------|
D|-5-5-5---------------5---5--5-5-5-----------------5------------|
A|-5-5------------------------5-5--------------------------------|
E|-3-3------------------------3-3--------------------------------|

e|---------------------------------------------------------------|
B|---------------------------------------------------------------|
G|-------3-5-5b6rb5-p3---3----------3-5-5b6rb5vvvv-hold----------|
D|-5-5-5---------------5---5--5-5-5------------------------------|
A|-5-5------------------------5-5--------------------------------|
E|-3-3------------------------3-3--------------------------------|

Enjoy!
Tap to rate this tab
# A B C D E F G H I J K L M N O P Q R S T U V W X Y Z