Song name
# A B C D E F G H I J K L M N O P Q R S T U V W X Y Z

Aljoscha - Sweet People tab

-------------------------------------------------------------------------------
			     Sweet people - Alyosha
-------------------------------------------------------------------------------
Tabbed by:Alina
Email:alysk84ever16@yahoo.com

  Hallo, I did this song by ear and it's my first time I upload guitar tabs,  chords and 
play to guitar. So please be kindly. I'm new here:D



Tuning: Standard


Intro
e|---7--8--| |--------| |-------------------------| |-----------------------|
B|---------| |--------| |-------------------------| |-----------------------|
G|---------| |--------| |-------------------------| |-----------------------|
D|---------| |--------| |-------------------------| |-----------------------|
A|---10--7-| |---10-7-| |--0-2-3--0--2--0--3--0-2-| |---2-3--0--2--0--3--0-2|
E|-0-------| |-0------| |3------------------------| |0-3--------------------|

 O, sweet people.....  what have we done?     Tell me, what is happening

e|----------| |----------------------|       |------------------------------|
B|----------| |----------------------|       |------------------------------|
G|----------| |----------------------|       |------------------------------|
D|----------| |----------------------|       |------------------------------|
A|----10--7-| |----------------------|       |---0-2-3--0--2--0--3--0-2-----|
E|-0--------| |----0-1--2--3-0-2-----|       |-3----------------------------|


for all that we've built tumbles and is gone?

e|-----------------------------------------------|
B|-----------------------------------------------|
G|-----------------------------------------------| [3X]from "o, sweet people"
D|-----------------------------------------------| to "and is gone" but with
A|-----2-----3------0------2-----0-----3---0---2-| the 2nd and the 3rd verse.
E|0--3-------------------------------------------|



e|---12---------12------12-------12------12--------|
B|------12--------12-------10------10--------------|
G|---------12-------12--------9-------9------------| [4X]
D|-------------------------------------------------|
A|-------------------------------------------------|
E|-0-----------------------------------------------|



[Repeate] again [3X]


  O, sweet people..........................

e|----------| |----------------------|       |------------------------------|
B|----------| |----------------------|       |------------------------------|
G|----------| |----------------------|       |------------------------------|
D|----------| |----------------------|       |------------------------------|
A|----10--7-| |----------------------|       |---0-2-3--0--2--0--3--0-2-----|
E|-0--------| |----0-1--2--3-0-2-----|       |-3----------------------------|





e|-----------------------------------------------|
B|-----------------------------------------------|
G|-----------------------------------------------|
D|-----------------------------------------------|
A|-----2-----3------0------2-----0-----3---0---2-|
E|0--3-------------------------------------------|
Tap to rate this tab
# A B C D E F G H I J K L M N O P Q R S T U V W X Y Z