Song name
# A B C D E F G H I J K L M N O P Q R S T U V W X Y Z

Alkaline Trio - Calling All Skeletons tab

Calling All Skeletons
Alkaline Trio
Guitar Tab


Guitar One

Verse One - Here it is again
		Yet it stings like the first time
		Seems like it never ends
		Double nickels on your dime
		I thought we were friends
		I guess it just depends who you ask
		These feelings tend to leave me
		With a hole in my chest
- Guitar One
e|-----------------|-----------------|-----------------|-----------------|
B|-----------------|-----------------|-----------------|-----------------|
G|-----------5-5-0-|-----------7-7-0-|-----------5-5-0-|-----------7-7-0-|
D|-2-2-------5-5-0-|-5-5-------7-7-0-|-2---------5-5-0-|-5-5-------7-7-0-|
A|-2-2-------3-3-0-|-5-5-------5-5-0-|-2---------3-3-0-|-5-5-------5-5-0-|
E|-0-0-------------|-3-3-------------|-0---------------|-3-3-------------|
   1 + 2 + 3 + 4 +   1 + 2 + 3 + 4 +   1 + 2 + 3 + 4 +   1 + 2 + 3 + 4 +


e|-----------------|-----------------|-----------------|-----------------|
B|-----------------|-----------------|-----------------|-----------------|
G|-----------5-5-0-|-----------7-7-0-|-----------5-5-0-|-----------7-7-0-|
D|-2-2-------5-5-0-|-5-5-------7-7-0-|-2-2-------5-5-0-|-5-5-------7-7-0-|
A|-2-2-------3-3-0-|-5-5-------5-5-0-|-2-2-------3-3-0-|-5-5-------5-5-0-|
E|-0-0-------------|-3-3-------------|-0-0-------------|-3-3-------------|
   1 + 2 + 3 + 4 +   1 + 2 + 3 + 4 +   1 + 2 + 3 + 4 +   1 + 2 + 3 + 4 +


Guitar One and Two


e|-----------------|-----------------|-----------------|-----------------|
B|-----------------|-----------------|-----------------|-----------------|
G|-----X-X-X-5-5-0-|-----X-X-X-7-7-0-|-----X-X-X-5-5-0-|-----X-X-X-7-7-0-|
D|-2-2-X-X-X-5-5-0-|-5-5-X-X-X-7-7-0-|-2-2-X-X-X-5-5-0-|-5-5-X-X-X-7-7-0-|
A|-2-2-X-X-X-3-3-0-|-5-5-X-X-X-5-5-0-|-2-2-X-X-X-3-3-0-|-5-5-X-X-X-5-5-0-|
E|-0-0-------------|-3-3-------------|-0-0-------------|-3-3-------------|
   1 + 2 + 3 + 4 +   1 + 2 + 3 + 4 +   1 + 2 + 3 + 4 +   1 + 2 + 3 + 4 +


e|-----------------|-----------------|-----------------|-----------------|
B|-----------------|-----------------|-----------------|-----------------|
G|-----X-X-X-5-5-0-|-----X-X-X-7-7-0-|-----X-X-X-5-5-0-|-----X-X-X-7-7-0-|
D|-2-2-X-X-X-5-5-0-|-5-5-X-X-X-7-7-0-|-2-2-X-X-X-5-5-0-|-5-5-X-X-X-7-7-0-|
A|-2-2-X-X-X-3-3-0-|-5-5-X-X-X-5-5-0-|-2-2-X-X-X-3-3-0-|-5-5-X-X-X-5-5-0-|
E|-0-0-------------|-3-3-------------|-0-0-------------|-3-3-------------|
   1 + 2 + 3 + 4 +   1 + 2 + 3 + 4 +   1 + 2 + 3 + 4 +   1 + 2 + 3 + 4 +


Verse Two - Now the time has come
		I just wish I could erase
		All the damage done to your name
		And your keep sakes
		Only just begun it's been fun
		We were blind deaf and dumb
		There's a party in my closet
		Calling all skeletons

- Guitar One and Two


e|-----------------|-----------------|-----------------|-----------------|
B|-----------------|-----------------|-----------------|-----------------|
G|-----------5-5-0-|-----------7-7-0-|-----------5-5-0-|-----------7-7-0-|
D|-2-2-------5-5-0-|-5-5-------7-7-0-|-2-2-------5-5-0-|-5-5-------7-7-0-|
A|-2-2-------3-3-0-|-5-5-------5-5-0-|-2-2-------3-3-0-|-5-5-------5-5-0-|
E|-0-0-------------|-3-3-------------|-0-0-------------|-3-3-------------|
   1 + 2 + 3 + 4 +   1 + 2 + 3 + 4 +   1 + 2 + 3 + 4 +   1 + 2 + 3 + 4 +


e|-----------------|-----------------|-----------------|-----------------|
B|-----------------|-----------------|-----------------|-----------------|
G|-----------5-5-0-|-----------7-7-0-|-----------5-5-0-|-----------7-7-0-|
D|-2-2-------5-5-0-|-5-5-------7-7-0-|-2-2-------5-5-0-|-5-5-------7-7-0-|
A|-2-2-------3-3-0-|-5-5-------5-5-0-|-2-2-------3-3-0-|-5-5-------5-5-0-|
E|-0-0-------------|-3-3-------------|-0-0-------------|-3-3-------------|
   1 + 2 + 3 + 4 +   1 + 2 + 3 + 4 +   1 + 2 + 3 + 4 +   1 + 2 + 3 + 4 +


e|-----------------|-----------------|-----------------|-----------------|
B|-----------------|-----------------|-----------------|-----------------|
G|-----X-X-X-5-5-0-|-----X-X-X-7-7-0-|-----X-X-X-5-5-0-|-----X-X-X-7-7-0-|
D|-2-2-X-X-X-5-5-0-|-5-5-X-X-X-7-7-0-|-2-2-X-X-X-5-5-0-|-5-5-X-X-X-7-7-0-|
A|-2-2-X-X-X-3-3-0-|-5-5-X-X-X-5-5-0-|-2-2-X-X-X-3-3-0-|-5-5-X-X-X-5-5-0-|
E|-0-0-------------|-3-3-------------|-0-0-------------|-3-3-------------|
   1 + 2 + 3 + 4 +   1 + 2 + 3 + 4 +   1 + 2 + 3 + 4 +   1 + 2 + 3 + 4 +


e|-----------------|-----------------|
B|-----------------|-----------------|
G|-------------5-5-|-5-5-5-4-4-4-5-5-|
D|-5-5-5-5-5-5-5-5-|-5-5-5-5-5-5-5-5-|
A|-3-3-3-3-3-3-3-3-|-3-3-3-3-3-3-3-3-|
E|-----------------|-----------------|
   1 + 2 + 3 + 4 +   1 + 2 + 3 + 4 +  
   PM--------------|
   * Gradually ease off 


Chorus -  	Where did you go
		As the lights went black
		Look what's become of me
		I've grown to love your disappearing acts
		Do one more pretty please

Guitar One

e|-----------------|-----------------|-----------------|-----------------|
B|-----------------|-----------------|-----------------|-----------------|
G|-----------------|-----------------|-5-5-5-4-4-4-5-5-|-5-5-5-4-4-4-5-5-|
D|-2-2-2-2-2-2-2-2-|-5-5-5-5-5-5-5-5-|-5-5-5-5-5-5-5-5-|-5-5-5-5-5-5-5-5-|
A|-2-2-2-2-2-2-2-2-|-5-5-5-5-5-5-5-5-|-3-3-3-3-3-3-3-3-|-0-0-0-0-0-0-0-0-|
E|-0-0-0-0-0-0-0-0-|-3-3-3-3-3-3-3-3-|-----------------|-----------------|
 | 1 + 2 + 3 + 4 +   1 + 2 + 3 + 4 +   1 + 2 + 3 + 4 +   1 + 2 + 3 + 4 +
 |
Guitar Two
e|-12--------------|-15----14--------|-12--------------|-----------------|
B|-------12--------|-----------------|-------12--------|-15----13--------|
G|-----------------|-----------------|-----------------|-----------------|
D|-----------------|-----------------|-----------------|-----------------|
A|-----------------|-----------------|-----------------|-----------------|
E|-----------------|-----------------|-----------------|-----------------|
   1 + 2 + 3 + 4 +   1 + 2 + 3 + 4 +   1 + 2 + 3 + 4 +   1 + 2 + 3 + 4 +


e|-----------------|-----------------|-----------------|-----------------|
B|-----------------|-----------------|-----------------|-----------------|
G|-----------------|-----------------|-----------------|-----------------|
D|-2-2-2-2-2-2-2-2-|-4-4-4-4-4-4-4-4-|-5-5-5-5-5-5-5-5-|-4-4-4-4-4-4-4-4-|
A|-2-2-2-2-2-2-2-2-|-4-4-4-4-4-4-4-4-|-5-5-5-5-5-5-5-5-|-2-2-2-2-2-2-2-2-|
E|-0-0-0-0-0-0-0-0-|-2-2-2-2-2-2-2-2-|-3-3-3-3-3-3-3-3-|-----------------|
 | 1 + 2 + 3 + 4 +   1 + 2 + 3 + 4 +   1 + 2 + 3 + 4 +   1 + 2 + 3 + 4 +
 |
e|-----------------|-----------------|-----------------|-----------------|
B|-----------------|-----------------|-----------------|-----------------|
G|-9-9-9-9-9-9-9-9-|-1111111111111111|-1212121212121212|-8-8-8-8-8-8-8-8-|
D|-X-X-X-X-X-X-X-X-|-X-X-X-X-X-X-X-X-|-X-X-X-X-X-X-X-X-|-X-X-X-X-X-X-X-X-|
A|-7-7-7-7-7-7-7-7-|-9-9-9-9-9-9-9-9-|-1010101010101010|-6-6-6-6-6-6-6-6-|
E|-----------------|-----------------|-----------------|-----------------|
   1 + 2 + 3 + 4 +   1 + 2 + 3 + 4 +   1 + 2 + 3 + 4 +   1 + 2 + 3 + 4 +


Interlude - Guitar One and Two


e|-----------------|-----------------|-----------------|-----------------|
B|-----------------|-----------------|-----------------|-----------------|
G|-----X-X-X-5-5-0-|-----X-X-X-7-7-0-|-----X-X-X-5-5-0-|-----X-X-X-7-7-0-|
D|-2-2-X-X-X-5-5-0-|-5-5-X-X-X-7-7-0-|-2-2-X-X-X-5-5-0-|-5-5-X-X-X-7-7-0-|
A|-2-2-X-X-X-3-3-0-|-5-5-X-X-X-5-5-0-|-2-2-X-X-X-3-3-0-|-5-5-X-X-X-5-5-0-|
E|-0-0-------------|-3-3-------------|-0-0-------------|-3-3-------------|
   1 + 2 + 3 + 4 +   1 + 2 + 3 + 4 +   1 + 2 + 3 + 4 +   1 + 2 + 3 + 4 +


Verse Three - 	Now the time has come
			I just wish I could erase
			All the damage done, all this pain
			All this heartache
			It's only just begun it's been fun
			We were fucked up and numb
			There's a killer on the corner
			And he's looking for love


- Guitar One


e|-----------------|-----------------|-----------------|-----------------|
B|-----------------|-----------------|-----------------|-----------------|
G|-----------5-5-0-|-----------7-7-0-|-9---------5-5-0-|-----------7-7-0-|
D|-2-2-------5-5-0-|-5-5-------7-7-0-|-9---------5-5-0-|-5-5-------7-7-0-|
A|-2-2-------3-3-0-|-5-5-------5-5-0-|-7---------3-3-0-|-5-5-------5-5-0-|
E|-0-0-------------|-3-3-------------|-----------------|-3-3-------------|
   1 + 2 + 3 + 4 +   1 + 2 + 3 + 4 +   1 + 2 + 3 + 4 +   1 + 2 + 3 + 4 +


e|-----------------|-----------------|-----------------|-----------------|
B|-----------------|-----------------|-----------------|-----------------|
G|-----------5-5-0-|-----------7-7-0-|-----------5-5-0-|-----------7-7-0-|
D|-2-2-------5-5-0-|-5-5-------7-7-0-|-2-2-------5-5-0-|-5-5-------7-7-0-|
A|-2-2-------3-3-0-|-5-5-------5-5-0-|-2-2-------3-3-0-|-5-5-------5-5-0-|
E|-0-0-------------|-3-3-------------|-0-0-------------|-3-3-------------|
   1 + 2 + 3 + 4 +   1 + 2 + 3 + 4 +   1 + 2 + 3 + 4 +   1 + 2 + 3 + 4 +


Guitar One and Two


e|-----------------|-----------------|-----------------|-----------------|
B|-----------------|-----------------|-----------------|-----------------|
G|-----X-X-X-5-5-0-|-----X-X-X-7-7-0-|-----X-X-X-5-5-0-|-----X-X-X-7-7-0-|
D|-2-2-X-X-X-5-5-0-|-5-5-X-X-X-7-7-0-|-2-2-X-X-X-5-5-0-|-5-5-X-X-X-7-7-0-|
A|-2-2-X-X-X-3-3-0-|-5-5-X-X-X-5-5-0-|-2-2-X-X-X-3-3-0-|-5-5-X-X-X-5-5-0-|
E|-0-0-------------|-3-3-------------|-0-0-------------|-3-3-------------|
   1 + 2 + 3 + 4 +   1 + 2 + 3 + 4 +   1 + 2 + 3 + 4 +   1 + 2 + 3 + 4 +


e|-----------------|-----------------|
B|-----------------|-----------------|
G|-------------5-5-|-5-5-5-4-4-4-5-5-|
D|-5-5-5-5-5-5-5-5-|-5-5-5-5-5-5-5-5-|
A|-3-3-3-3-3-3-3-3-|-3-3-3-3-3-3-3-3-|
E|-----------------|-----------------|
   1 + 2 + 3 + 4 +   1 + 2 + 3 + 4 +  
   PM--------------|
   * Gradually ease off 


Chorus -  	Where did you go
		As the lights went black
		Look what's become of me
		I've grown to love your disappearing acts
		Do one more pretty please

Guitar One

e|-----------------|-----------------|-----------------|-----------------|
B|-----------------|-----------------|-----------------|-----------------|
G|-----------------|-----------------|-5-5-5-4-4-4-5-5-|-5-5-5-4-4-4-5-5-|
D|-2-2-2-2-2-2-2-2-|-5-5-5-5-5-5-5-5-|-5-5-5-5-5-5-5-5-|-5-5-5-5-5-5-5-5-|
A|-2-2-2-2-2-2-2-2-|-5-5-5-5-5-5-5-5-|-3-3-3-3-3-3-3-3-|-0-0-0-0-0-0-0-0-|
E|-0-0-0-0-0-0-0-0-|-3-3-3-3-3-3-3-3-|-----------------|-----------------|
 | 1 + 2 + 3 + 4 +   1 + 2 + 3 + 4 +   1 + 2 + 3 + 4 +   1 + 2 + 3 + 4 +
 |
Guitar Two
e|-12--------------|-15----14--------|-12--------------|-----------------|
B|-------12--------|-----------------|-------12--------|-15----13--------|
G|-----------------|-----------------|-----------------|-----------------|
D|-----------------|-----------------|-----------------|-----------------|
A|-----------------|-----------------|-----------------|-----------------|
E|-----------------|-----------------|-----------------|-----------------|
   1 + 2 + 3 + 4 +   1 + 2 + 3 + 4 +   1 + 2 + 3 + 4 +   1 + 2 + 3 + 4 +


e|-----------------|-----------------|-----------------|-----------------|
B|-----------------|-----------------|-----------------|-----------------|
G|-----------------|-----------------|-----------------|-----------------|
D|-2-2-2-2-2-2-2-2-|-4-4-4-4-4-4-4-4-|-5-5-5-5-5-5-5-5-|-4-4-4-4-4-4-4-4-|
A|-2-2-2-2-2-2-2-2-|-4-4-4-4-4-4-4-4-|-5-5-5-5-5-5-5-5-|-2-2-2-2-2-2-2-2-|
E|-0-0-0-0-0-0-0-0-|-2-2-2-2-2-2-2-2-|-3-3-3-3-3-3-3-3-|-----------------|
 | 1 + 2 + 3 + 4 +   1 + 2 + 3 + 4 +   1 + 2 + 3 + 4 +   1 + 2 + 3 + 4 +
 |
e|-----------------|-----------------|-----------------|-----------------|
B|-----------------|-----------------|-----------------|-----------------|
G|-9-9-9-9-9-9-9-9-|-1111111111111111|-1212121212121212|-8-8-8-8-8-8-8-8-|
D|-X-X-X-X-X-X-X-X-|-X-X-X-X-X-X-X-X-|-X-X-X-X-X-X-X-X-|-X-X-X-X-X-X-X-X-|
A|-7-7-7-7-7-7-7-7-|-9-9-9-9-9-9-9-9-|-1010101010101010|-6-6-6-6-6-6-6-6-|
E|-----------------|-----------------|-----------------|-----------------|
   1 + 2 + 3 + 4 +   1 + 2 + 3 + 4 +   1 + 2 + 3 + 4 +   1 + 2 + 3 + 4 +


Bridge - 	And to tell you the truth
		I lost my faith in you
		(You gotta stop sneaking off on me)
		And these unspoken lies,
		Happen at the worst time
		(You gotta stop sneaking off on me)
		They're hiding just beyond your eyes!

- Guitar One and Two


e|-----------------|-----------------|-----------------|-----------------|
B|-----------------|-----------------|-----------------|-----------------|
G|-5---5---5---5---|-7---7---7---7---|-9-9-9-9-9-9-9-0-|-4-4-4-4-4-4-4-5-|
D|-5---5---5---5---|-7---7---7---7---|-9-9-9-9-9-9-9-0-|-4-4-4-4-4-4-4-5-|
A|-3---3---3---3---|-5---5---5---5---|-7-7-7-7-7-7-7-0-|-2-2-2-2-2-2-2-3-|
E|-----------------|-----------------|-----------------|-----------------|
   1 + 2 + 3 + 4 +   1 + 2 + 3 + 4 +   1 + 2 + 3 + 4 +   1 + 2 + 3 + 4 +


e|-----------------|-----------------|-----------------|-----------------|
B|-----------------|-----------------|-----------------|-----------------|
G|-5---5---5---5---|-7---7---7---7---|-9-9-9-9-9-9-9-0-|-4-4-4-4-4-4-4-5-|
D|-5---5---5---5---|-7---7---7---7---|-9-9-9-9-9-9-9-0-|-4-4-4-4-4-4-4-5-|
A|-3---3---3---3---|-5---5---5---5---|-7-7-7-7-7-7-7-0-|-2-2-2-2-2-2-2-3-|
E|-----------------|-----------------|-----------------|-----------------|
   1 + 2 + 3 + 4 +   1 + 2 + 3 + 4 +   1 + 2 + 3 + 4 +   1 + 2 + 3 + 4 +


e|-----------------|-----------------|
B|-----------------|-----------------|
G|-5-5-5-5-5-5-5-5-|-7-7-7-7-7-7-7-7-|
D|-5-5-5-5-5-5-5-5-|-7-7-7-7-7-7-7-7-|
A|-3-3-3-3-3-3-3-3-|-5-5-5-5-5-5-5-5-|
E|-----------------|-----------------|
   1 + 2 + 3 + 4 +   1 + 2 + 3 + 4 +  


Interlude - Guitar One


e|-----------------|-----------------|-----------------|-----------------|
B|-----------------|-----------------|-----------------|-----------------|
G|-----------5-5-0-|-----------7-7-0-|-----------5-5-0-|-----------7-7-0-|
D|-2-2-------5-5-0-|-5-5-------7-7-0-|-2-2-------5-5-0-|-5-5-------7-7-0-|
A|-2-2-------3-3-0-|-5-5-------5-5-0-|-2-2-------3-3-0-|-5-5-------5-5-0-|
E|-0-0-------------|-3-3-------------|-0-0-------------|-3-3-------------|
   1 + 2 + 3 + 4 +   1 + 2 + 3 + 4 +   1 + 2 + 3 + 4 +   1 + 2 + 3 + 4 +


Guitar One and Two


e|-----------------|-----------------|-----------------|-----------------|
B|-----------------|-----------------|-----------------|-----------------|
G|-----------5-5-0-|-----------7-7-0-|-----------5-5-0-|-----------7-7-0-|
D|-2-2-------5-5-0-|-5-5-------7-7-0-|-2-2-------5-5-0-|-5-5-------7-7-0-|
A|-2-2-------3-3-0-|-5-5-------5-5-0-|-2-2-------3-3-0-|-5-5-------5-5-0-|
E|-0-0-------------|-3-3-------------|-0-0-------------|-3-3-------------|
   1 + 2 + 3 + 4 +   1 + 2 + 3 + 4 +   1 + 2 + 3 + 4 +   1 + 2 + 3 + 4 +


e|-----------------|-----------------|
B|-----------------|-----------------|
G|-------------5-5-|-5-5-5-4-4-4-5-5-|
D|-5-5-5-5-5-5-5-5-|-5-5-5-5-5-5-5-5-|
A|-3-3-3-3-3-3-3-3-|-3-3-3-3-3-3-3-3-|
E|-----------------|-----------------|
   1 + 2 + 3 + 4 +   1 + 2 + 3 + 4 +  
   PM--------------|
   * Gradually ease off 


Chorus -  	Where did you go
		As the lights went black?
		Look what's become of me
		I've grown to love your disappearing acts
		Do one more pretty please
		Where did you go
		As the lights went black?
		You nearly gave us a heart attack
		We thought you might swim out to sea
		You gotta stop sneaking off on me
		You gotta stop sneaking off on me

Guitar One
e|-----------------|-----------------|-----------------|-----------------|
B|-----------------|-----------------|-----------------|-----------------|
G|-----------------|-----------------|-5-5-5-4-4-4-5-5-|-5-5-5-4-4-4-5-5-|
D|-2-2-2-2-2-2-2-2-|-5-5-5-5-5-5-5-5-|-5-5-5-5-5-5-5-5-|-5-5-5-5-5-5-5-5-|
A|-2-2-2-2-2-2-2-2-|-5-5-5-5-5-5-5-5-|-3-3-3-3-3-3-3-3-|-0-0-0-0-0-0-0-0-|
E|-0-0-0-0-0-0-0-0-|-3-3-3-3-3-3-3-3-|-----------------|-----------------|
 | 1 + 2 + 3 + 4 +   1 + 2 + 3 + 4 +   1 + 2 + 3 + 4 +   1 + 2 + 3 + 4 +
 |
Guitar Two
e|-12--------------|-15----14--------|-12--------------|-----------------|
B|-------12--------|-----------------|-------12--------|-15----13--------|
G|-----------------|-----------------|-----------------|-----------------|
D|-----------------|-----------------|-----------------|-----------------|
A|-----------------|-----------------|-----------------|-----------------|
E|-----------------|-----------------|-----------------|-----------------|
   1 + 2 + 3 + 4 +   1 + 2 + 3 + 4 +   1 + 2 + 3 + 4 +   1 + 2 + 3 + 4 +


e|-----------------|-----------------|-----------------|-----------------|
B|-----------------|-----------------|-----------------|-----------------|
G|-----------------|-----------------|-5-5-5-5-5-5-5-4-|-4-4-4-5-5-5-5-5-|
D|-2-2-2-2-2-2-2-2-|-4-4-4-4-4-4-4-4-|-5-5-5-5-5-5-5-5-|-5-5-5-5-5-5-5-5-|
A|-2-2-2-2-2-2-2-2-|-4-4-4-4-4-4-4-4-|-3-3-3-3-3-3-3-3-|-3-3-3-3-3-3-3-3-|
E|-0-0-0-0-0-0-0-0-|-2-2-2-2-2-2-2-2-|-----------------|-----------------|
 | 1 + 2 + 3 + 4 +   1 + 2 + 3 + 4 +   1 + 2 + 3 + 4 +   1 + 2 + 3 + 4 +
 |
e|-----------------|-----------------|-----------------|-----------------|
B|-----------------|-----------------|-----------------|-----------------|
G|-9-9-9-9-9-9-9-9-|-1111111111111111|-5-5-5-5-5-5-5-4-|-4-4-4-5-5-5-5-5-|
D|-X-X-X-X-X-X-X-X-|-X-X-X-X-X-X-X-X-|-5-5-5-5-5-5-5-5-|-5-5-5-5-5-5-5-5-|
A|-7-7-7-7-7-7-7-7-|-9-9-9-9-9-9-9-9-|-3-3-3-3-3-3-3-3-|-3-3-3-3-3-3-3-3-|
E|-----------------|-----------------|-----------------|-----------------|
   1 + 2 + 3 + 4 +   1 + 2 + 3 + 4 +   1 + 2 + 3 + 4 +   1 + 2 + 3 + 4 +


e|-----------------|-----------------|-----------------|-----------------|
B|-----------------|-----------------|-----------------|-----------------|
G|-----------------|-----------------|-5-5-5-4-4-4-5-5-|-5-5-5-4-4-4-5-5-|
D|-2-2-2-2-2-2-2-2-|-5-5-5-5-5-5-5-5-|-5-5-5-5-5-5-5-5-|-5-5-5-5-5-5-5-5-|
A|-2-2-2-2-2-2-2-2-|-5-5-5-5-5-5-5-5-|-3-3-3-3-3-3-3-3-|-0-0-0-0-0-0-0-0-|
E|-0-0-0-0-0-0-0-0-|-3-3-3-3-3-3-3-3-|-----------------|-----------------|
 | 1 + 2 + 3 + 4 +   1 + 2 + 3 + 4 +   1 + 2 + 3 + 4 +   1 + 2 + 3 + 4 +
 |
e|-12--------------|-15----14--------|-12--------------|-----------------|
B|-------12--------|-----------------|-------12--------|-15----13--------|
G|-----------------|-----------------|-----------------|-----------------|
D|-----------------|-----------------|-----------------|-----------------|
A|-----------------|-----------------|-----------------|-----------------|
E|-----------------|-----------------|-----------------|-----------------|
   1 + 2 + 3 + 4 +   1 + 2 + 3 + 4 +   1 + 2 + 3 + 4 +   1 + 2 + 3 + 4 +


e|-----------------|-----------------|-----------------|-----------------|
B|-----------------|-----------------|-----------------|-----------------|
G|-----------------|-----------------|-----------------|-----------------|
D|-2-2-2-2-2-2-2-2-|-4-4-4-4-4-4-4-4-|-5-5-5-5-5-5-5-5-|-4-4-4-4-4-4-4-4-|
A|-2-2-2-2-2-2-2-2-|-4-4-4-4-4-4-4-4-|-5-5-5-5-5-5-5-5-|-2-2-2-2-2-2-2-2-|
E|-0-0-0-0-0-0-0-0-|-2-2-2-2-2-2-2-2-|-3-3-3-3-3-3-3-3-|-----------------|
 | 1 + 2 + 3 + 4 +   1 + 2 + 3 + 4 +   1 + 2 + 3 + 4 +   1 + 2 + 3 + 4 +
 |
e|-----------------|-----------------|-----------------|-----------------|
B|-----------------|-----------------|-----------------|-----------------|
G|-9-9-9-9-9-9-9-9-|-1111111111111111|-1212121212121212|-8-8-8-8-8-8-8-8-|
D|-X-X-X-X-X-X-X-X-|-X-X-X-X-X-X-X-X-|-X-X-X-X-X-X-X-X-|-X-X-X-X-X-X-X-X-|
A|-7-7-7-7-7-7-7-7-|-9-9-9-9-9-9-9-9-|-1010101010101010|-6-6-6-6-6-6-6-6-|
E|-----------------|-----------------|-----------------|-----------------|
   1 + 2 + 3 + 4 +   1 + 2 + 3 + 4 +   1 + 2 + 3 + 4 +   1 + 2 + 3 + 4 +


e|-----------------|-----------------|-----------------|-----------------|
B|-----------------|-----------------|-----------------|-----------------|
G|-5-5-5-5-5-5-5-5-|-7-7-7-7-7-7-7-7-|-9---------------|-----------------|
D|-5-5-5-5-5-5-5-5-|-7-7-7-7-7-7-7-7-|-9---------------|-----------------|
A|-3-3-3-3-3-3-3-3-|-5-5-5-5-5-5-5-5-|-7---------------|-----------------|
E|-----------------|-----------------|-0---------------|-----------------|
 | 1 + 2 + 3 + 4 +   1 + 2 + 3 + 4 +   1 + 2 + 3 + 4 +   1 + 2 + 3 + 4 +  
 |
e|-----------------|-----------------|-----------------|-----------------|
B|-----------------|-----------------|-----------------|-----------------|
G|-9-9-9-9-9-9-9-9-|-9/11111111111112|-12--------------|-----------------|
D|-X-X-X-X-X-X-X-X-|-X-X-X-X-X-X-X/X-|-X---------------|-----------------|
A|-7-7-7-7-7-7-7-7-|-7/9-9-9-9-9-9/10|-10--------------|-----------------|
E|-----------------|-----------------|-----------------|-----------------|
   1 + 2 + 3 + 4 +   1 + 2 + 3 + 4 +   1 + 2 + 3 + 4 +   1 + 2 + 3 + 4 +
Tap to rate this tab
# A B C D E F G H I J K L M N O P Q R S T U V W X Y Z