Song name
# A B C D E F G H I J K L M N O P Q R S T U V W X Y Z

Alkaline Trio - In My Stomach tab

-------------------------------------------------------------------------------
		In My Stomach - Alkaline Trio
-------------------------------------------------------------------------------
Tabbed by: Jeff Martindale

Tuning: Standard


Intro

e|-----------------------------------------------------------------------------------|
B|--------0---------------0---0--------0------------0---0-------0-----------0--------|
G|-----0-----0----0----0------0------0---0---0----0-----0----0----0---0---0---0------|
D|--2-----------2---1---------1----0-------0------------x----------------------------|
A|----------------------------------------------4-------4--3--------3---3-------3----|
E|-----------------------------------------------------------------------------------|

e|---------------------------------------------------------------------------|
B|--2/4--2--0h2p0------------------------------------------------------------|
G|-----------------4---------------------------------------------------------|
D|---------------------------------------------------------------------------|
A|---------------------------------------------------------------------------|
E|---------------------------------------------------------------------------|


Verse x2


e|-----------------------------------------------------------------------------------|
B|--------0---------------0---0--------0------------0---0-------0-----------0--------|
G|-----0-----0----0----0------0------0---0---0----0-----0----0----0---0---0---0------|
D|--2-----------2---1---------1----0-------0------------x----------------------------|
A|----------------------------------------------4-------4--3--------3---3-------3----|
E|-----------------------------------------------------------------------------------|

e|---------------------------------------------------------------------------|
B|--2/4--2--0h2p0------------------------------------------------------------|
G|-----------------4--2--4---------------------------------------------------|
D|---------------------------------------------------------------------------|
A|---------------------------------------------------------------------------|
E|---------------------------------------------------------------------------|


Chorus x2


e|---------------------------------------------------------------------------|
B|---------0-----1p0---------0------1p0-------0----3p0-------0----3p0--------|
G|------0----0------------0----0------------0---0------0---0---0-------------|
D|---------------------------------------------------------------------------|
A|----3----------------3------------------2--------------2-------------------|
E|---------------------------------------------------------------------------|

e|-------------------------------------------------|-------------------------|
B|-------------------------------------------------|-------0---3p0-----------|
G|-------2----------0---0--------------------------|-----0---0-----0---------|
D|-----2---2------0---0---------2------------------|-------------------------|
A|---0-------0--2-------------2---2------2--5--3---|---3-------------2-0-----|
E|-------------------------0--------0--1-----------|---------------------3-0-|
						    **Played last x of chorus


Bridge x2 (Listen for strumming pattern)


e|------------------------------------|-----------------|
B|------------------------------------|-----------------|
G|--0-0-0-0---0-0-0-0---0-0-0--2--0---|-----------------|
D|--2-2-2-2---2-2-2-0---2-2-2--2--2---|-----------------|
A|--2-2-2-3---2-2-2-2---2-2-2--0--3---|--2--0-----------|
E|--0-0-0-x---0-0-0-3---0-0-0-----x---|--------3--0-----|
                                          **Played last x of bridge


Structure:
Intro
Verse
Chorus
Intro
Verse
Chorus
Bridge
Intro



| /  slide up
| \  slide down
| h  hammer-on
| p  pull-off
| ~  vibrato
| +  harmonic
| x  Mute note
===============================================================================
Tap to rate this tab
 
# A B C D E F G H I J K L M N O P Q R S T U V W X Y Z