Guitaretab - guitar tabs
Song name
# A B C D E F G H I J K L M N O P Q R S T U V W X Y Z

Alkaline Trio - Do You Wanna Know tab

Title: Do You Wanna Know
Album: Agony and Irony

Intro
|--------------------------------------------------|----------|-end--|
|--------------------------------------------------|----------|--on--|
|-7-7-7-7-7-7-11-11-11-9-9-9-6-6-6-6-6-6-6-9-9-9-9-|--played--|------|
|-x-x-x-x-x-x-x--x--x--x-x-x-x-x-x-x-x-x-x-x-x-x-x-|--twice---|--7---|
|-5-5-5-5-5-5-9--9--9--7-7-7-4-4-4-4-4-4-4-7-7-7-7-|----------|--7---|
|--------------------------------------------------|----------|--5---|

Verse 1
|-5----0----2---------5---------2-------|
|-5----0----2----7----5---------2----7--|
|-6----1----2----7----6----6----2----7--|
|-7----2----4----7----7----7----4----7--|
|-7----2----4----5----7----7----4----5--|
|-5----0----2---------5----4----2-------|

Pre Chorus
|-------------------------------------------------------------------|
|-------------------------------------------------------------------|
|-------------------7-7-7-7-7-7-7-7-7-7-7-7-9-9-9-9-9-9-9-9-9-9-9-9-|
|-------------------7-7-7-7-7-7-7-7-7-7-7-7-9-9-9-9-9-9-9-9-9-9-9-9-|
|----------------2-5-5-5-5-5-5-5-5-5-5-5-5-7-7-7-7-7-7-7-7-7-7-7-7-|
|-5----4----2----0--------------------------------------------------|

|-------------------------------------------------------------------|
|-------------------------------------------------------------------|
|-------------------7-7-7-7-7-7-7-7-7-7-7-7-9-9-9-9-9-9-9-9-9-x-x-x-|
|-------------------7-7-7-7-7-7-7-7-7-7-7-7-9-9-9-9-9-9-9-9-9-x-x-x-|
|----------------2-5-5-5-5-5-5-5-5-5-5-5-5-7-7-7-7-7-7-7-7-7-x-x-x-|
|-5----4----2----0--------------------------------------------------|

Chorus
|-----------------------------------------------------------------------|
|-----------------------------------------------------------------------|
|-7-7-7-7-7-7-----------------------------6-6-6-7-7-7-7-7-7-------------|
|-7-7-7-7-7-7-4-4-4-4-4-2-2-2-2-2-2-2-2-2-4-4-4-7-7-7-7-7-7-4-4-4-4-4-4-|
|-5-5-5-5-5-5-4-4-4-4-4-2-2-2-2-2-2-2-2-2-4-4-4-5-5-5-5-5-5-4-4-4-4-4-4-|
|-------------2-2-2-2-2-0-0-0-0-0-0-0-0-0-------------------2-2-2-2-2-2-|
[ Tab from: http://www.guitaretab.com/a/alkaline-trio/111417.html ]
|-------------x-----x--------------------------------------------|
|-------------x-----x--------------------------------------------|
|-------------x-11--x-6--7-7-7-7-7-7-------------------------6---|
|-2-2-2-2-2-2-x-11-x-6--7-7-7-7-7-7-4-4-4-4-4-4-2-2-2-2-2-2-x-6-|
|-2-2-2-2-2-2-x--9--x-4--5-5-5-5-5-5-4-4-4-4-4-4-2-2-2-2-2-2-4-x-|
|-0-0-0-0-0-0-x-----x----------------2-2-2-2-2-2-0-0-0-0-0-0---4-|

|----------------------------------------------------------|
|----------------------------------------------------------|
|-11-11-11-13-13-13-14-14-14-6-6-6-7-7-7-7-7-7-7-7-7-7-7-7-|
|--x--x--x--x--x--x--x--x--x-x-x-x-x-x-x-x-x-x-x-x-x-x-x-x-|
|--9--9--9-11-11-11-12-12-12-4-4-4-5-5-5-5-5-5-5-5-5-5-5-5-|
|----------------------------------------------------------|


Bridge
|-------------------------------------------------------------|
|-------------------------------------------------------------|
|-6-6-6-6-6-6-6-6-6-6-6-6-------------------------7-7-7-7-7-7-|
|-6-6-6-6-6-6-6-6-6-6-6-6-7-7-7-7-7-7-7-7-7-7-7-7-7-7-7-7-7-7-|
|-4-4-4-4-4-4-4-4-4-4-4-4-7-7-7-7-7-7-7-7-7-7-7-7-5-5-5-5-5-5-|
|-------------------------5-5-5-5-5-5-5-5-5-5-5-5-------------|

|------------------------------------------------------------------|
|------------------------------------------------------------------|
|-7-7-7-7-7-7-6-6-6-6-6-6-11-9-------------------------6-6-6-6-6-6-|
|-7-7-7-7-7-7-6-6-6-6-6-6-11-9-4-4-4-4-4-4-4-4-4-4-4-4-6-6-6-6-6-6-|
|-5-5-5-5-5-5-4-4-4-4-4-4--9-7-4-4-4-4-4-4-4-4-4-4-4-4-4-4-4-4-4-4-|
|------------------------------2-2-2-2-2-2-2-2-2-2-2-2-------------|

|-------------------------------------------------------------|
|-------------------------------------------------------------|
|-6-6-6-6-6-6-7-7-7-7-7-7-7-7-7-7-7-7-9-9-9-9-9-9-9-9-9-x-x-x-|
|-6-6-6-6-6-6-7-7-7-7-7-7-7-7-7-7-7-7-9-9-9-9-9-9-9-9-9-x-x-x-|
|-4-4-4-4-4-4-5-5-5-5-5-5-5-5-5-5-5-5-7-7-7-7-7-7-7-7-7-x-x-x-|
|-------------------------------------------------------------|

The second guitar part being played over the bridge sounds like this but it could be 
(quick up and down picking)
|-------------------------------------------------------|
|-10-10-10-10-10-10-9-9-9-9-9-9-7-7-7-7-7-7-------------|
|-------------------------------------------6-6-6-6-6-6-|
|-------------------------------------------------------|
|-------------------------------------------------------|
|-------------------------------------------------------|
Related for Do You Wanna Know tab