Guitaretab - guitar tabs
Song name
# A B C D E F G H I J K L M N O P Q R S T U V W X Y Z

Alkaline Trio - Lost And Rendered tab

-------------------------------------------------------------------------------
		      Lost and Rendered - Alkaline Trio
-------------------------------------------------------------------------------
Tabbed by: Ryan Grimes

Email:the.shermanator512@gmail.com


Tuning:Standard


This tab may not be perfect, but it is the best way I can figure out to bring 
all parts (lead and rhythm) out using only one guitar. The Outro in particular is
subject to this, and the part that I have written here is a compromise between
harmonizing melody lines.
I apologize for the discrepancy in count structure spacing in the pre-chorus and 
chorus, this was just the best solution I had for the unforseen double-digit 
fret 10.
If you have any suggestions please feel free to contact me at my above email address.
Enjoy!



Intro
e|--------|--------|--------|--------|
B|--------|--------|--------|--------|
G|--------|--------|--------|---7--54|
D|22------|22------|22------|5--7--54|   X2
A|22------|22------|22------|5--5--32|
E|00------|00------|00------|3-------|
  1+2+3+4+ 1+2+3+4+ 1+2+3+4+ 1+2+3+4+ 

Verse	
e|--------|--------|--------|--------|--------|--------|--------|--------|
B|--------|--------|--------|--------|--------|--------|--------|--------|
G|--------|-------5|55-444-5|55-777--|--------|-------5|55-444-5|55-222--|
D|--------|-------5|55-444-5|55-777--|--------|-------5|55-444-5|55-222-2|
A|--------|-------3|33-222-3|33-555--|--------|-------3|33-222-3|33-000-2|
E|--------|--------|--------|--------|--------|--------|--------|-------0|
  1+2+3+4+ 1+2+3+4+ 1+2+3+4+ 1+2+3+4+ 1+2+3+4+ 1+2+3+4+ 1+2+3+4+ 1+2+3+4+ 

Pre-Chorus
e|---------|----------------|---------|---------------|
B|---------|----------------|---------|---------------|
G|---999-11|1111--121212----|---999-11|1111--121212---|
D|22-999-11|1111--121212---2|22-999-11|1111--121212--2|
A|22-777-9-|9-9---101010---2|22-777-9-|9-9---101010--2|
E|00-------|---------------0|00-------|--------------0|
  1+2+3+4+  1 + 2 + 3 + 4 +  1+2+3+4+  1 + 2 + 3 + 4 + 

e|---------|---------------|--------|
B|---------|---------------|--------|
G|---999-11|1111--12121212-|--------|
D|22-999-11|1111--12121212-|--------|
A|22-777-9-|9-9---10101010-|--------|
E|00-------|---------------|--------|
  1+2+3+4+  1 + 2 + 3 + 4 + 1+2+3+4+
 
Chorus
e|---------------------|---------------|-----------------------|
B|---------------------|---------------|-----------------------|
G|12-12-12-11-11-11-7-7|7-7-7-7-7-7-7-7|-----------------------|
D|12-12-12-11-11-11-7-7|7-7-7-7-7-7-7-7|10-10-10-9--9--9--9--10|
A|10-10-10-9--9--9--5-5|5-5-5-5-5-5-5-5|10-10-10-9--9--9--9--10|
E|---------------------|---------------|8--8--8--7--7--7--7--8-|
  1  +  2  +  3  +  4 + 1 + 2 + 3 + 4 + 1  +  2  +  3  +  4  +  

e|----------------------|---------------------|---------------|
B|----------------------|---------------------|---------------|
G|10-10-10-9--9--9--10-9|12-12-12-11-11-11-7-7|7-7-7-7-7-7-7-7|
D|10-10-10-9--9--9--10-9|12-12-12-11-11-11-7-7|7-7-7-7-7-7-7-7|
A|8--8--8--7--7--7--8--7|10-10-10-9--9--9--5-5|5-5-5-5-5-5-5-5|
E|----------------------|---------------------|---------------|
  1  +  2  +  3  +  4  + 1  +  2  +  3  +  4 + 1 + 2 + 3 + 4 + 

e|----------------|-----------------------|---------------------|---------------|
B|----------------|-----------------------|---------------------|---------------|
G|----------------|-----------------------|12-12-12-11-11-11-7-7|7-7-7-7-7-7-7-7|
D|9-9-9-9-9-9-9-10|10-10-10-10-10-10-10-10|12-12-12-11-11-11-7-7|7-7-7-7-7-7-7-7|
A|9-9-9-9-9-9-9-10|10-10-10-10-10-10-10-10|10-10-10-9--9--9--5-5|5-5-5-5-5-5-5-5|
E|7-7-7-7-7-7-7-8-|8--8--8--8--8--8--8--8-|---------------------|---------------|
  1 + 2 + 3 + 4 +  1  +  2  +  3  +  4  +  1  +  2  +  3  +  4 + 1 + 2 + 3 + 4 + 
[ Tab from: http://www.guitaretab.com/a/alkaline-trio/114414.html ]
e|-----------------------|-----------------------|---------------------|
B|-----------------------|-----------------------|---------------------|
G|-----------------------|-----------------------|12-12-12-11-11-11-7-7|
D|10-10-10-9--9--9--9--10|10-10-10-9--9--9--10-9-|12-12-12-11-11-11-7-7|
A|10-10-10-9--9--9--9--10|10-10-10-9--9--9--10-9-|10-10-10-9--9--9--5-5|
E|8--8--8--7--7--7--7--8-|8--8--8--7--7--7--8--7-|---------------------|
  1  +  2  +  3  +  4  +  1  +  2  +  3  +  4  +  1  +  2  +  3  +  4 +  

e|---------------|----------------|--------|
B|---------------|----------------|--------|
G|7-7-7-7-7-7-7-7|----------------|--------|
D|7-7-7-7-7-7-7-7|9-9-9-9-9-9-9-10|--------|
A|5-5-5-5-5-5-5-5|9-9-9-9-9-9-9-10|--------|
E|---------------|7-7-7-7-7-7-7-8-|--------|
  1 + 2 + 3 + 4 + 1 + 2 + 3 + 4 +  1+2+3+4+

(Chorus before the Bridge ends like this)
e|---------------|---------|
B|---------------|---------|
G|---------------|---------|
D|9-9-9-9-9-9-9-9|10=======|
A|9-9-9-9-9-9-9-9|10=======|
E|7-7-7-7-7-7-7-7|8========|
  1 + 2 + 3 + 4 + 1 +2+3+4+

(Chorus before Outro just continues strumming on the C chord all through the bar)

Bridge

Guitar tacet for 16 bars (46 beats)
A good thing to do during the bridge if you are alone and need to fill the silence 
is to palm-mute and strum the bassline, which goes E G C A C B, in quarter- or 
half-notes. Then this:

e|---------------|----------------|
B|---------------|----------------|
G|--------------5|5-5---4-4-4-----|
D|2-2---5-5-5---5|5-5---4-4-4---2-|  x2
A|2-2---5-5-5---3|3-3---2-2-2---2-|
E|0-0---3-3-3----|--------------0-|
  1 + 2 + 3 + 4 + 1 + 2 + 3 + 4 + 

e|---------------|---------------|---------------|--------|--------|
B|---------------|---------------|---------------|--------|--------|
G|--------------5|5-5---4-4-4----|2-2-2-2-2-2-2-2|2-------|--------|
D|2-2---5-5-5---5|5-5---4-4-4----|2-2-2-2-2-2-2-2|2-------|--------|
A|2-2---5-5-5---3|3-3---2-2-2----|0-0-0-0-0-0-0-0|0-------|--------|
E|0-0---3-3-3----|---------------|---------------|--------|--------|
  1 + 2 + 3 + 4 + 1 + 2 + 3 + 4 + 1 + 2 + 3 + 4 + 1+2+3+4+ 1+2+3+4+

Outro
e|---------------------|---------------|-----------------------|
B|---------------------|---------------|-----------------------|
G|12-12-12-11-11-11-7-7|7-7-7-7-7-7-7-7|12-12-12-11-11-11------|
D|12-12-12-11-11-11-7-7|7-7-7-7-7-7-7-7|12-12-12-11-11-11-10-10|
A|10-10-10-9--9--9--5-5|5-5-5-5-5-5-5-5|10-10-10-9--9--9--10-10|
E|---------------------|---------------|------------------8--8-|
  1  +  2  +  3  +  4 + 1 + 2 + 3 + 4 + 1  +  2  +  3  +  4  + 

e|-----------------------|---------------------|---------------|
B|-----------------------|---------------------|---------------|
G|-----------------------|12-12-12-11-11-11-7-7|7-7-7-7-7-7-7-7|
D|10-10-10-10-10-10-10-10|12-12-12-11-11-11-7-7|7-7-7-7-7-7-7-7|
A|10-10-10-10-10-10-10-10|10-10-10-9--9--9--5-5|5-5-5-5-5-5-5-5|
E|8--8--8--8--8--8--8--8-|---------------------|---------------|
  1  +  2  +  3  +  4  +  1  +  2  +  3  +  4 + 1 + 2 + 3 + 4 + 

e|---------------|-----------------------|
B|---------------|-----------------------|
G|---------------|-----------------------|
D|9-9-9-9-9-9-9-9|10-10-10-10-10-10-10-10|
A|9-9-9-9-9-9-9-9|10-10-10-10-10-10-10-10|
E|7-7-7-7-7-7-7-7|8--8--8--8--8--8--8--8-|
  1 + 2 + 3 + 4 + 1  +  2  +  3  +  4  + 

e|---------------------|---------------|-----------------------|
B|---------------------|---------------|-----------------------|
G|12-12-12-11-11-11-7-7|7-7-7-7-7-7-7-7|12-12-12-11-11-11------|
D|12-12-12-11-11-11-7-7|7-7-7-7-7-7-7-7|12-12-12-11-11-11-10-10|
A|10-10-10-9--9--9--5-5|5-5-5-5-5-5-5-5|10-10-10-9--9--9--10-10|
E|---------------------|---------------|------------------8--8-|
  1  +  2  +  3  +  4 + 1 + 2 + 3 + 4 + 1  +  2  +  3  +  4  + 

e|-----------------------|---------------------|---------------|
B|-----------------------|---------------------|---------------|
G|-----------------------|12-12-12-11-11-11-7-7|7-7-7-7-7-7-7-7|
D|10-10-10-10-10-10-10-10|12-12-12-11-11-11-7-7|7-7-7-7-7-7-7-7|
A|10-10-10-10-10-10-10-10|10-10-10-9--9--9--5-5|5-5-5-5-5-5-5-5|
E|8--8--8--8--8--8--8--8-|---------------------|---------------|
  1  +  2  +  3  +  4  +  1  +  2  +  3  +  4 + 1 + 2 + 3 + 4 + 

e|----------------|
B|----------------|
G|----------------|
D|9-9-9-9-9-9-9-10|
A|9-9-9-9-9-9-9-10|
E|7-7-7-7-7-7-7-8-|
  1 + 2 + 3 + 4 +



The order of the song is:
Intro
Verse
Pre-chorus
Chorus
Intro
Verse
Pre-chorus
Chorus
Bridge
Chorus
Outro



| /  slide up
| \  slide down
| h  hammer-on
| p  pull-off
| ~  vibrato
| +  harmonic
| x  Mute note
| =  Let Ring
===============================================================================
Related for Lost And Rendered tab
Lost And Rendered chords by Alkaline Trio