Guitaretab - guitar tabs
Song name
# A B C D E F G H I J K L M N O P Q R S T U V W X Y Z

Alkaline Trio - Buried tab

This is the first tab i've ever done...
i hope its good
i had a look at the other tabs for this song and
i've basically expanded the other one thats on here
to show all the different parts and rythm
any criticisms or pointers would be appreciated

Intro + Verse 1
e|--------------------------------------------------- > x3>
B|-----------------------------------------|   ------ >
G|-----------------------------------------|    ----- >
D|---0---2-0---0---4-----------------------|     ---- >
A|-----0-----0----------7--5---7-----------|      --- >
D|-0-------------5---5-------5-------------|       -- >
                                                     X2
------------|                                      -- >
------------|                                     --- >
------------|                                    ---- >
-7-7-7--5--|                                   ----- >
-7--7-7--5--|                                  ------ >
-7-7-7--5------------------------------------------- > >>>>>>>>>>>>>>>>>>>>>>>>>>>>>>>>>>


e|---------------------------------|        x4
B|---------------------------------|
G|---------------------------------|
D|---0---2-0---0-------------------|
A|-----0-----0---------------------|
D|-0-------------------------------|


Verse 2
e|--------------------------------------------------|
B|--------------------------------------------------|
G|--7--7-7-7----------------------------------------|
D|--7--7-7-7--5--5-5-5--7--7-7-7--5--5-5-5----------|
A|--5--5-5-5--5--5-5-5--7--7-7-7--5--5-5-5----------|
D|--0--0-0-0--5--5-5-5--7--7-7-7--5--5-5-5----------|

e|--------------------------------------------------|
B|--------------------------------------------------|
G|--7--7-7-7----------------------------------------|
D|--7--7-7-7--5--5-5-5--7--7-7-7--7--7-7-7----------|
A|--5--5-5-5--5--5-5-5--7--7-7-7--7--7-7-7----------|
D|--0--0-0-0--5--5-5-5--7--7-7-7--7--7-7-7----------|
[ Tab from: http://www.guitaretab.com/a/alkaline-trio/139810.html ]
e|--------------------------------------------------|
B|--------------------------------------------------|
G|--7--7-7-7----------------------------------------|
D|--7--7-7-7--5--5-5-5--7--7-7-7--5--5-5-5----------|
A|--5--5-5-5--5--5-5-5--7--7-7-7--5--5-5-5----------|
D|--0--0-0-0--5--5-5-5--7--7-7-7--5--5-5-5----------|

e|---------------------------------------------------------|
B|---------------------------------------------------------|
G|--7--7-7-7-----------------------------------------------|
D|--7--7-7-7--5--5-5-5--7-7-7--7-7-7--7-7-7--7-7-7---------|
A|--5--5-5-5--5--5-5-5--7-7-7--7-7-7--7-7-7--7-7-7---------|
D|--0--0-0-0--5--5-5-5--7-7-7--7-7-7--7-7-7--7-7-7---------|

Chorus
|--------------------------------|     x4
|--------------------------------|
|-7-7-7--------------------------|
|-7-7-7--5-5-5--7-7-7-7-7-7-7-7--|
|-5-5-5--5-5-5--7-7-7-7-7-7-7-7--|
|-0-0-0--5-5-5--7-7-7-7-7-7-7-7--|

Bridge
e|-----------------------------------------| x3
B|-----------------------------------------|
G|-----------------------------------------|
D|---0---2-0---0---4-----------------------|
A|-----0-----0----------7--5---7-----------|
D|-0-------------5---5-------5-------------|

----------------------------|
----------------------------|
----------------------------|
-7-7-7-7-7-7--5--5-5-5-5-5-|
-7--7-7-7-7-7--5--5-5-5-5-5-|
-7-7-7-7-7-7--5-5-5-5-5-5-|

Verse 3
e|---------------------------------------------------------|
B|---------------------------------------------------------|
G|--7--7-7-7-7---------------------------------------------|
D|--7--7-7-7-7--5--5-5-5-5--7--7-7-7-7--5--5-5-5-5---------|
A|--5--5-5-5-5--5--5-5-5-5--7--7-7-7-7--5--5-5-5-5---------|
D|--0--0-0-0-0--5--5-5-5-5--7--7-7-7-7--5--5-5-5-5---------|

e|---------------------------------------------------------|
B|---------------------------------------------------------|
G|--7--7-7-7-7---------------------------------------------|
D|--7--7-7-7-7--5--5-5-5-5--7--7-7-7-7--7--7-7-7-7---------|
A|--5--5-5-5-5--5--5-5-5-5--7--7-7-7-7--7--7-7-7-7---------|
D|--0--0-0-0-0--5--5-5-5-5--7--7-7-7-7--7--7-7-7-7---------|

Chorus
|--------------------------------|     x13
|--------------------------------|
|-7-7-7--------------------------|
|-7-7-7--5-5-5--7-7-7-7-7-7-7-7--|
|-5-5-5--5-5-5--7-7-7-7-7-7-7-7--|
|-0-0-0--5-5-5--7-7-7-7-7-7-7-7--|

Finish on
|---|
|---|
|-7-|
|-7-|
|-5-|
|-0-|

and for anyone who doesnt know how to tune to drop d, just tune the low e string so that 
7th fret sounds the same as the a string

thanks
Related for Buried tab