Song name
# A B C D E F G H I J K L M N O P Q R S T U V W X Y Z

Alkaline Trio - Live Young Die Fast tab

-------------------------------------------------------------------------------
			     Live Young, Die Fast - Alkaline Trio
-------------------------------------------------------------------------------
Tabbed by: Alex Emry
Email: alexemry@myspace.com
Tuning: E Standard (EADGBe)

Intro:
e|--------------------------------------------|
B|--------------------------------------------|
G|--------------------------------------------|
D|-11-11-11--9-9-9--7-7---7---6--6-6-4--4-4---|
A|--9--9--9--7-7-7--5-5---5---4--4-4-2--2-2---|
E|--------------------------------------------|

e|--------------------------------------------|
B|--------------------------------------------|
G|-----------------------------------------4--|
D|-11-11-11--9-9-9--7-7---7---6-6-6--------4--|
A|--9--9--9--7-7-7--5-5---5---4-4-4--------2--|
E|--------------------------------------------|

The verse is just some chords, that Matt strums and let's them ring. Figure it out.

Chorus: Repeat until the end of the chorus 
"But we are one with the larva... 
             so live young die fast..."
e|--------------------------------------------------------|
B|--------------------------------------------------------|
G|--------------------------------------------------------|
D|-----------6-6--6--4-4--4--7-7--7-7--7----6-6-6---------|
A|-----------4-4--4--2-2--2--5-5--5-5--5----4-4-4---------|
E|--------------------------------------------------------|
 "No one will last...
e|------------------------------------------|
B|------------------------------------------|
G|------------------------------------------|
D|--------------------4-4-4--6/7/6/4--------|
A|--------------------2-2-2--4/5/4/2--------|
E|------------------------------------------|

After the chorus, go back to the intro. Then repeat.

Bridge/Outro:
"And I feel a miracle..."
e|---------------------------------|
B|---------------3p2--3p2----------|
G|-4p3p2--4p3p2-----2----2---------|
D|---------------------------------|
A|---------------------------------|
E|---------------------------------|

Song flow:
Intro
Verse
Chorus
Intro
Verse
Chorus
Bridge
Chorus
Outro

| /  slide up
| \  slide down
| h  hammer-on
| p  pull-off
| ~  vibrato
| +  harmonic
| x  Mute note
===============================================================================
Tap to rate this tab
# A B C D E F G H I J K L M N O P Q R S T U V W X Y Z