Song name
# A B C D E F G H I J K L M N O P Q R S T U V W X Y Z

Alkaline Trio - Fine Acoustic chords

Highlighted       Show chord diagrams
This is the acoustic version of Alkaline Trio's "Fine" from their deluxe
album This Addiction (Feb 23, 2010).  It's also my first tab and I hope
that it helps you learn this great song successfully!

|-------------------------------------------------------0-----|
|-----------------5-----------------------2---------3-------3-|
|-----6---4---6-------6---4---6-------2-------2-------2---2---|
|-5/7---7---7---7---7---7---7---7-\-4---4---4---4-0-----------|
|-------------------------------------------------------------|
|-------------------------------------------------------------| Intro Lead x4

Intro Rhythm (begins after two intro lead progressions)

  A                                F#5          Dsus2
|-0-----------------------------------------------0-----------|
|-2-----------------------------------------------3-----------|
|-2-----------------------------------------------2-----------|
|-2---------------------------------4-------------0-----------|
|-0---------------------------------4-------------------------|
|-----------------------------------2-------------------------| Intro Rhythm x2

	[Verse Rhythm (intro lead continues)]
           A
It's gonna rain like this for days
          F#5             Dsus2
I'm gonna drown in my old ways
     A         F#5    Dsus2
But I'm fine, I'm fine
           A
It's gonna hurt like Hell when
                  F#5        Dsus2
You pull back the hammer and fire
     A         F#5    Dsus2
But I'm fine, I'm fine



	[Verse Rhythm (intro lead stops)]
          E
You see a storm knocked out my superpower
D
Now I sleep through thunder showers
A                               E
Wake me when you learn to be cool
           E
If I'm the captain of this boat
            D
Then all my shipmates are fools
            A
And all the stars in the world couldn't help me
E            D                  A
Steer my way out of this kiddie pool



	[Intro x2]



	[Verse Rhythm (intro lead continues)]
          A
I'm gonna wake up from this dream
                F#5            Dsus2
With nightmares lined up on my street
     A         F#5    Dsus2
But I'm fine, I'm fine
           A
We need an end to keep my head up
           F#5              Dsus2
So you put hooks in both my ears
     A         F#5    Dsus2
But I'm fine, I'm fine



	[Verse Rhythm (intro lead stops)]
            E
Yes, it's a chronic pain in my ass but
    D
No, it's not a burning
       A
It's ironic that I drink to make my
E
Insides stop hurting
           E
And it's a love that gives me heartburn
       D
It's a sound that makes my stomach turn
      A                     E
And I wouldn't trade my ache
            D          A
For all the aces in the deck


	[Outro]
F#5 Dsus2
       A
Cause I'm fine

F#5 Dsus2
       A
Cause I'm fine

F#5 Dsus2
       A
Cause I'm fine
       F#5    Dsus2
Cause I'm fine
    A
I'm fine


     [Intro Lead x1]
Tap to rate this tab
 
# A B C D E F G H I J K L M N O P Q R S T U V W X Y Z