Song name
# A B C D E F G H I J K L M N O P Q R S T U V W X Y Z

Alkaline Trio - Lead Poisoning tab

Lead Poisoning - Alkaline Trio

By:  Adam Jardel (agj5000@gmail.com)

Please let me know if there are any corrections needed.

Listen for the rhythm.

Standard Tuning

{
INTRO   
e|---------------------------------------------------|
B|---------------------------------------------------|
G|---------------------------------------------------|
D|---------------------------------------------------|
A|-5-555--5-555--5-555--5-555------------------------|
E|-3-333--3-333--3-333--3-333------------------------|

Verse
e|---------------------------------------------------|
B|---------------------------------------------------|
G|---------------------------------------------------|  x2
D|---------------4-444--9-777------------------------|
A|-5-555--5-555--2-222--7-555------------------------|
E|-3-333--3-333--------------------------------------|

Verse continued
e|---------------------------------------------------|
B|---------------------------------------------------|
G|---------------------------------------------------|
D|-5-555---------7-777--9-777-5-555-5-555-7-777-8-888|
A|-3-333--5-555--5-555--7-555-3-333-3-333-5-555-6-666|
E|--------3-333--------------------------------------|

Chorus
e|---------------------------------------------------|
B|---------------------------------------------------|
G|-9-9/11-11/12--12/14-------------------------------|
D|----------------------5555-7777--------------------| x3
A|-7-7/9---9/10--10/12--3333-5555--------------------|
E|---------------------------------------------------|


4Th Chorus
e|---------------------------------------------------|
B|---------------------------------------------------|
G|-9-9/11-11/12--12/14-------------------------------|
D|----------------------5555-7-----------------------| 
A|-7-7/9---9/10--10/12--3333-5-----------------------|
E|---------------------------------------------------|  }x2

During Trumpet
e|---------------------------------------------------|
B|---------------------------------------------------|
G|---------------------------------------------------|  
D|---------------7-777--7-777-9-999-9-999-7-777-7-777|
A|-5-555--5-555--5-555--5-555-7-777-7-777-5-555-5-777|
E|-3-333--3-333--------------------------------------|

Chorus
e|---------------------------------------------------|
B|---------------------------------------------------|
G|-9-9/11-11/12--12/14-------------------------------|
D|----------------------5555-7777--------------------| x3
A|-7-7/9---9/10--10/12--3333-5555--------------------|
E|---------------------------------------------------|


4Th Chorus
e|---------------------------------------------------|
B|---------------------------------------------------|
G|-9-9/11-11/12--12/14-------------------------------|
D|----------------------5555-7-----------------------| 
A|-7-7/9---9/10--10/12--3333-5-----------------------|
E|---------------------------------------------------|

INTRO   
e|---------------------------------------------------|
B|---------------------------------------------------|
G|---------------------------------------------------|
D|---------------------------------------------------|
A|-5-555--5-555--5-555--5-555------------------------|
E|-3-333--3-333--3-333--3-333------------------------|
Tap to rate this tab
 
# A B C D E F G H I J K L M N O P Q R S T U V W X Y Z