Song name
# A B C D E F G H I J K L M N O P Q R S T U V W X Y Z

Alkaline Trio - Queen Of Pain tab

Help us improve GuitareTab! Take a short survey!
-------------------------------------------------------------------------------
Queen Of Pain Ė Alkaline Trio
-------------------------------------------------------------------------------

This is one of Alkaline Trioís song of there new split ep with Hot water music
Iím sure they have two guitarists in this so Iíll try and tab out both parts!

Key
** Palm Mute
~~ Let Ring
>> Slide
>
x  Pick Slide
>

INTRO RIFF
e|------------------------------------------------------------------|
B|------------------------------------------------------------------|
G|---------6-6-6-6-4-4-4-4-3-3-3-3----------6-6-6-6-4-4-4-4-3-3-3-3-|
D|------------------------------------------------------------------|
A|-6-6-6-6----------------------------------------------------------|
E|---------------------------------7-7-7-7--------------------------|

e|------------------------------------------------------------------|
B|------------------------------------------------------------------|
G|---------6-6-6-6-4-4-4-4-3-3-3-3----------------------------------|
D|---------------------------------4444444--------------------------|
A|-6-6-6-6-------------------------2222222--------------------------|
E|------------------------------------------------------------------|

INTRO CHORDS   
e|------------------------------------------------------------------|
B|------------------------------------------------------------------|
G|------------------------------------------------------------------|
D|-8888888-666-4444444-333------------3333333333-4444444444---------|
A|-6666666-444-2222222-111-6666666666-1111111111-2222222222---------|
E|-------------------------4444444444-------------------------------|

PRE VERSE
e|-----------------------|
B|-----------------------|
G|-----------------------|
D|-88888888-666--4-------|
A|-66666666-444--2-------|
E|-----------------------|
   ********

VERSE 
e|--------------------------------------------|
B|--------------------------------------------|
G|--------------------------------------------|
D|--4->-6->-8->-6->-4->-6->-4->-2-------------|
A|--2->-4->-6->-4->-2->-4->-2->-0-------------|
E|--------------------------------------------|

CHORUS
e|-----------------------------------------|
B|-----------------------------------------|
G|-----------------888-888-444-444---------|
D|-444-444-444-444-888-888-444-444---------|
A|-444-444-444-444-666-666-222-222---------|
E|-222-222-222-222-------------------------|
   **  **  **  **  **  **  **  **

CHORUS ENDING
e|-----------------------------------------|
B|-----------------------------------------|
G|-----------------888-888-666-666666------|
D|-444-444-444-444-888-888-666-666666------|
A|-444-444-444-444-666-666-444-444444------|
E|-222-222-222-222-------------------------|
   **  **  **  **  **  **  **  ***

BRIDGE
e|------------------------------------------------------|
B|------------------------------------------------------|
G|----------------8888888888-666666666666---------------|
D|-44444444444444-8888888888-666666666666---------------|
A|-44444444444444-6666666666-444444444444---------------|
E|-22222222222222---------------------------------------|
   ************** ********** ************ 
e|------------------------------------------------------|
B|------------------------------------------------------|
G|----------------8888888888-4444444444444--------------|
D|-44444444444444-8888888888-4444444444444-->-----------|
A|-44444444444444-6666666666-2222222222222--x-----------|
E|-22222222222222--------------------------->-----------|
   ************** ********** ********

OUTRO RIFF
e|------------------------------------------------------------------|
B|------------------------------------------------------------------|
G|---------6-6-6-6-4-4-4-4-3-3-3-3----------6-6-6-6-4-4-4-4-3-3-3-3-|
D|-4-4-4-4----------------------------------------------------------|
A|---------------------------------6-6-6-6--------------------------|
E|------------------------------------------------------------------|

SONG LAYOUT!

INTRO x 2
PRE VERSE 
VERSE
INTRO 
VERSE
PRE VERSE
CHORUS x 3
CHORUS ENDING
INTRO 
VERSE 
PRE VERSE 
CHORUS x 3
CHORUS ENDING
BRIDGE
CHORUS x 3
CHORUS ENDING
OUTRO RIFF x 4
===============================================================================
Related for Queen Of Pain tab