Song name
# A B C D E F G H I J K L M N O P Q R S T U V W X Y Z

Alkaline Trio - Dine Dine My Darling tab

Verse: x2, second time palm-muting and rhythm is varied. 
e|--------------------------------------------------------------------------|
B|--------------------------------------------------------------------------|
G|----------55555555----------77777777----------55555555-777-777-777-777(7)-|
D|-55555555-55555555-55555555-77777777-55555555-55555555-777-777-777-777(7)-|
A|-55555555-33333333-55555555-55555555-55555555-33333333-555-555-555-555(5)-|
E|-33333333----------33333333----------33333333-----------------------------|
   xxxxxxxx xxxxxxxx xxxxxxxx xxxxxxxx xxxxxxxx xxxxxxxx xx  xx  xx  xx 
       
Pre-Chorus:
e|--------------------------------------------------------------------------|
B|--------------------------------------------------------------------------|
G|----------55555555-77777777-----------------------------------------------|
D|-77777777-55555555-77777777-----------------------------------------------|
A|-77777777-33333333-55555555-----------------------------------------------|
E|-55555555-----------------------------------------------------------------|

Chorus:
e|--------------------------------------------------------------------------|
B|--------------------------------------------------------------------------|
G|------------------5555555555555555-7777777777777777-5555555555555555------|
D|-5555555555555555-5555555555555555-7777777777777777-5555555555555555------|
A|-5555555555555555-3333333333333333-5555555555555555-3333333333333333------|
E|-3333333333333333---------------------------------------------------------|

e|--------------------------------------------------------------------------|
B|--------------------------------------------------------------------------|
G|------------------5555555555555555-7777777777777777-55555555-77777777-----|
D|-5555555555555555-5555555555555555-7777777777777777-55555555-77777777-----|
A|-5555555555555555-3333333333333333-5555555555555555-33333333-55555555-----|
E|-3333333333333333---------------------------------------------------------|

e|----------7---7-8-10-12p10~----------7---7-8-10-8-7-----------------------|
B|-8---8-10---8---------------8---8-10---8------------10--------------------|
G|---7--------------------------7-------------------------------------------|
D|--------------------------------------------------------------------------|
A|--------------------------------------------------------------------------|
E|--------------------------------------------------------------------------|

Verse: x2, second time palm-muting and rhythm is varied. 
e|--------------------------------------------------------------------------|
B|--------------------------------------------------------------------------|
G|----------55555555----------77777777----------55555555-777-777-777-777(7)-|
D|-55555555-55555555-55555555-77777777-55555555-55555555-777-777-777-777(7)-|
A|-55555555-33333333-55555555-55555555-55555555-33333333-555-555-555-555(5)-|
E|-33333333----------33333333----------33333333-----------------------------|
   xxxxxxxx xxxxxxxx xxxxxxxx xxxxxxxx xxxxxxxx xxxxxxxx xx  xx  xx  xx 

Chorus:
e|--------------------------------------------------------------------------|
B|--------------------------------------------------------------------------|
G|------------------5555555555555555-7777777777777777-5555555555555555------|
D|-5555555555555555-5555555555555555-7777777777777777-5555555555555555------|
A|-5555555555555555-3333333333333333-5555555555555555-3333333333333333------|
E|-3333333333333333---------------------------------------------------------|

e|--------------------------------------------------------------------------|
B|--------------------------------------------------------------------------|
G|------------------5555555555555555-7777777777777777-55555555-77777777-----|
D|-5555555555555555-5555555555555555-7777777777777777-55555555-77777777-----|
A|-5555555555555555-3333333333333333-5555555555555555-33333333-55555555-----|
E|-3333333333333333---------------------------------------------------------|

e|----------7---7-8-10-12p10~----------7---7-8-10---------------------------|
B|-8---8-10---8---------------8---8-10---8----------------------------------|
G|---7--------------------------7-------------------------------------------|
D|--------------------------------------------------------------------------|
A|--------------------------------------------------------------------------|
E|--------------------------------------------------------------------------|

Chorus 2:
e|--------------------------------------------------------------------------|
B|--------------------------------------------------------------------------|
G|------7777777777777777-9999999999999999-7777777777777777------------------|
D|-7777-7777777777777777-9999999999999999-7777777777777777------------------|
A|-7777-5555555555555555-7777777777777777-5555555555555555------------------|
E|-5555---------------------------------------------------------------------|

e|--------------------------------------------------------------------------|
B|--------------------------------------------------------------------------|
G|------------------7777777777777777-9999999999999999-77777777-99999999-----|
D|-7777777777777777-7777777777777777-9999999999999999-77777777-99999999-----|
A|-7777777777777777-5555555555555555-7777777777777777-55555555-77777777-----|
E|-5555555555555555---------------------------------------------------------|

e|------------9----9-10-12-14p12~------------9----9-10-12-10-9-10-----------|
B|-10---10-12---10----------------10---10-12---10---------------------------|
G|----9------------------------------9--------------------------------------|
D|--------------------------------------------------------------------------|
A|--------------------------------------------------------------------------|
E|--------------------------------------------------------------------------|

e|------------9----9-10-12-14p12~------------9----9-10-12-10-9--------------|
B|-10---10-12---10----------------10---10-12---10--------------12-10--------|
G|----9------------------------------9--------------------------------------|
D|--------------------------------------------------------------------------|
A|--------------------------------------------------------------------------|
E|--------------------------------------------------------------------------|

| x  palm-mute
| p  pull-off
| ~  vibrato
Tap to rate this tab
# A B C D E F G H I J K L M N O P Q R S T U V W X Y Z