Guitaretab - guitar tabs
Song name
# A B C D E F G H I J K L M N O P Q R S T U V W X Y Z

Alkaline Trio - Goodbye Forever tab

****last edited: 4/21/07***** hopefully i fixed the wrongs....

GOODBYE FOREVER- ALKALINE TRIO GUITAR TABS
[album: Goddamnit or their self-titled album- not sure iím tabbing off a mix CD]

\ = slide up
/ = slide down
x = mute
(x8) = strike [chord] 8 times
~ = let ring

x3 [outside of tabs on side] = play section 3 time

Intro
e|------------------------------------------|
B|------------------------------------------|
G|-9-9--9-9-9--9-9-9--9-9-9-6---------------|
D|-x-x--x-x-x--x-x-x--x-x-x-6(x16)----------| x1
A|-7-7--7-7-7--7-7-7--7-7-7-4---------------|
E|------------------------------------------|

e|------------------------------------------|
B|------------------------------------------|
G|-9-9--9-9-9--9-9-9--9-9-9-6-------7-------| x1
D|-x-x--x-x-x--x-x-x--x-x-x-6-(x8)--6-(x8)--|
A|-7-7--7-7-7--7-7-7--7-7-7-4-------4-------|
E|------------------------------------------|

e|------------------------------------------|
B|------------------------------------------|
G|-9-9--9-9-9--9-9-9--9-9-9-6---------------| x1
D|-x-x--x-x-x--x-x-x--x-x-x-6(x16)----------|
A|-7-7--7-7-7--7-7-7--7-7-7-4---------------|
E|------------------------------------------|

(0:14)
transition
e|-----------------------|
B|-----------------------|
G|-4-pick scrape-2-4-----|
D|-4-------------2-4-----|
A|-2-------------0-2-----|
E|-----------------------|

0:20

Take your wings outside....
VerseI [begin]
e|------------------------------------------|
B|------------------------------------------|
G|-9-9--9-9-9--9-9-9--9-9-9-6---------------|
D|-x-x--x-x-x--x-x-x--x-x-x-6(x16)----------| x1
A|-7-7--7-7-7--7-7-7--7-7-7-4---------------|
E|------------------------------------------|
..besides the purple sky...
e|------------------------------------------|
B|------------------------------------------|
G|-9-9--9-9-9--9-9-9--9-9-9-6-------7-------| x1
D|-x-x--x-x-x--x-x-x--x-x-x-6-(x8)--6-(x8)--|
A|-7-7--7-7-7--7-7-7--7-7-7-4-------4-------|
E|------------------------------------------|
 angel.. youíre an angel...
e|------------------------------------------|
B|------------------------------------------|
G|-9-9--9-9-9--9-9-9--9-9-9-6---------------|
D|-x-x--x-x-x--x-x-x--x-x-x-6(x16)----------| x1
A|-7-7--7-7-7--7-7-7--7-7-7-4---------------|
E|------------------------------------------|

0:34
as for me iíll stay inside
transition
e|--------------------------|
B|--------------------------|
G|-4~-------------2~-4~-----|
D|-4~-------------2~-4~-----|[VerseI end]
A|-2~-------------0~-2~-----|
E|--------------------------|

transition
e|-----------------------|
B|-----------------------|
G|-4---------------------|
D|-4-(x8)----------------|
A|-2---------------------|
E|-----------------------|


repeat verseI
(0:41)Cannot categorize....
[ Tab from: http://www.guitaretab.com/a/alkaline-trio/22768.html ]
[1:00][after VerseI str8 to chorus]
as we say goodbye, and go underground...
Chorus
e|---------------------------------------------------------------|
B|---------------------------------------------------------------|
G|-6-----------------------6-------------------------------------|
D|-6-(x16)-7-------7-------6-(x16)--7------7---------------------|
A|-4-------7-(x8)--7-(x8)--4--------7-(x8)-7-(x8)----------------|
E|---------4-------5----------------4------5---------------------|

       		alive...
e|------------------------|
B|------------------------|
G|-6-------2------4~------|
D|-6-(x16)-2-(x8)-4~--2~--|
A|-4-------0------2~--2~--|
E|--------------------0---|

transition
  take your.. no use...     Itís getting...              ..and never before..
    (1:17)      (1:20)	   (1:27)              (1:29)      (1:32)
e|--------------------|---------------------------------------------------|
B|--------------------|---------------------------------------------------|
G|----9~----------4~--|------9~--------------------4~----------5~/7~\5~---|
D|----9~----------4~--|------9~--------4~----------4~----------5~/7~\5~---|
A|----7-----------2~--|------7~--------4~----------2~----------3~/5~\3~---|
E|----0~----------0~--|------0~--------2~----------0~----------0~-0~-0~---|

then go back to the chorus ďAnd we say goodbye....Ē (1:37 - 1:51)

(1:51) [no gaps in between- itís strummed up an down constantly & fast]
e|---------------------------------------------------------------|
B|---------------------------------------------------------------|
G|-9------/8\-9-------9------/8\-9------/8\-9------/8\-9---------|
D|-x-(x16)/x\-x-(x16)-x-(x16)/x\-x-(x16)/x\-x-(x16)/x\-x-(x16)---|
A|-7------/6\-7-------7------/6\-7------/6\-7------/6\-7---------|
E|---------------------------------------------------------------|

(2:05)        			    (2:09)
e|-------------------------------------|
B|-------------------------------------|
G|---9------/8-10-----13-11\8-9--------|
D|---x-(x8)-/x-x-(x3)-x--x-\x-x-(x16)--|
A|---7------/6-9------11-9-\6-7--------|
E|-------------------------------------|

rhythm change [same as intro but slower]
(2:10)

e|--------------------------|
B|--------------------------|
G|-9-9---9-9-9--9-9-9--8-8--|
D|-x-x---x-x-x--x-x-x--x-x--| x3
A|-7-7---7-7-7--7-7-7--6-6--|
E|--------------------------|

(1:17)
e|-------------------------|
B|-------------------------|
G|--9------11-----13-------|
D|--x-(x8)-x-(x4)--x-(x4)--|
A|--7------9------11-------|
E|-------------------------|

(and back to the chorus) (2:20- end)
..and we say goodbye..  ..at least weíre still friends

then INSTEAD of ending on
e|----|
B|----|
G|----|
D|-2~-|
A|-2~-|
E|-0~-|
end on this (2:34) ďalive...Ē:
e|----|
B|----|
G|-9~-|
D|-9~-|
A|-7~-|
E|-0~-|

WEWT! ^^ questions or comments... e-mail me @ balingit_m@hotmail.com [[put somethin in 
topic thatíll prove yr not spam]]
Related for Goodbye Forever tab