Alkaline Trio - Off The Map tab

Off the map - Alkaline Trio - This Addiction - EADGBe

Verse 1 
(I needed more wine..)
e|------------------------------------------------------------------------|
B|------------------------------------------------------------------------|
G|------------------------------------------------------------------------|
D|------------------66666666-44444444-66666666----------------------------|    2x
A|-2222222222222222-00000000-00000000-44444444-66666666-77777777-99999999-|   
E|-0000000000000000----------------------------44444444-55555555-77777777-|
   **************** ***************** ******** ******** ******** *****

(i can ride the storm out...)
e|------------------------------------------------------------------|
B|------------------------------------------------------------------|
G|------------------------------------------------------------------|
D|------------------------------------------------------------------|
A|-77-777-777-777-799-999-999-9666-77-777-777-777-799-999-977779999-|
E|-55-555-555-555-577-777-777-7444-55-555-555-555-577-777-755557777-|

(see i'm so far off the map..)
e|------------------------------------|
B|------------------------------------|
G|------------------------------------|
D|------------------------------------|     2x
A|-77777777-77777777-9999999999999999-|
E|-00000000-55555555-7777777777777777-|
   ******** ******** ****************

e|----------------------------|
B|----------------------------|
G|----------------------------|
D|----------------------------|
A|-77777777-77777777-99999999-|
E|-00000000-55555555-77777777-|
   ******** ******** ********

e|----------------------------------------|
B|----------------------------------------|
G|----------------------------------------|
D|-9999-----------------------------------|
A|-7777-999977777777777799999999999999999-|
E|------777755555555555577777777777777777-|
   **** ************************

Interlude riff
e|----------------------------------------------------------------------------------|
B|----------------------------------------------------------------------------------|
G|----------------------------------------------------------------------------------|
D|-------------999-777-66-444444444444-66-77-66666666-9999------------------------2-|
A|--7777777777-777-777-77-222222222222-44-44-44444444-7777-7777-999999999999-6666-2-|
E|--0000000000---------------------------------------------5555-777777777777-7777-0-|

Verse
e|------------------------------------------------------------------------|
B|------------------------------------------------------------------------|
G|------------------------------------------------------------------------|
D|------------------66666666-44444444-66666666----------------------------|    2x
A|-2222222222222222-00000000-00000000-44444444-66666666-77777777-99999999-|   
E|-0000000000000000----------------------------44444444-55555555-77777777-|
   **************** ***************** ******** ******** ******** *****

e|------------------------------------------------------------------|
B|------------------------------------------------------------------|
G|------------------------------------------------------------------|
D|------------------------------------------------------------------|
A|-77-777-777-777-799-999-999-9666-77-777-777-777-799-999-977779999-|
E|-55-555-555-555-577-777-777-7444-55-555-555-555-577-777-755557777-|

e|------------------------------------|
B|------------------------------------|
G|------------------------------------|
D|------------------------------------|     2x
A|-77777777-77777777-9999999999999999-|
E|-00000000-55555555-7777777777777777-|
   

e|----------------------------|
B|----------------------------|
G|----------------------------|
D|----------------------------|
A|-77777777-77777777-99999999-|
E|-00000000-55555555-77777777-|
   

e|----------------------------------------|
B|----------------------------------------|
G|----------------------------------------|
D|-9999-----------------------------------|
A|-7777-999977777777777799999999999999999-|
E|------777755555555555577777777777777777-|
   


Interlude riff
e|---------------------------------------------------------------------------------|
B|---------------------------------------------------------------------------------|
G|---------------------------------------------------------------------------------|
D|-------------999-777-66-444444444444-66-77-66666666-9999-------------------------|     2x
A|--7777777777-777-777-77-222222222222-44-44-44444444-7777-7777-999999999999-6666--|
E|--0000000000---------------------------------------------5555-777777777777-7777--|

Second guitar optional chords (not 100%, suggestions?) find your own rythym
e|---------------|
B|---------------|
G|---------------|
D|-9-------16-14-|
A|-7-6-7-9-14-12-|
E|---4-5-7-------|
Tap to rate this tab
 
# A B C D E F G H I J K L M N O P Q R S T U V W X Y Z