Song name
# A B C D E F G H I J K L M N O P Q R S T U V W X Y Z

Alkaline Trio - All On Black Acoustic tab

----------------------------------------------------------------------------
                        All on Black Acoustic - Alkaline Trio              
---------------------------------------------------------------------------
Tabbed by: KyLeDaYgReEnDaY
Email: kyledaygreenday@hotmail.co.uk

Tuning: Standard (EADGBE)

Intro
e|----------------------------------------------------------|
B|----------------------------------------------------------|
G|--9-9-9-7-7-7-5-5-5-4-2-4-5-5-5-5-5-5-5-5-5-5-5-5-5-5-5-5-|
D|--7-7-7-7-7-7-7-7-7-5-2-5-3-3-3-3-3-3-3-3-3-3-3-3-3-3-3-3-|
A|----------------------------------------------------------| x 2
E|----------------------------------------------------------|

  Verse
e|------------------------------------|
B|------------------------------------|
G|------------------------------------|
D|--7~--------3~------7----3~--5~-----|
A|--7~--------3~------7----3~--5~-----| x 2
E|--5~--------1~------5----1~--3~-----|
 
 Fill-in
e|----------------------------------------------------------|
B|----------------------------------------------------------|
G|--9-9-9-7-7-7-5-5-5-4-2-4-5-5-5-5-5-5-5-5-5-5-5-5-5-5-5-5-|
D|--7-7-7-7-7-7-7-7-7-5-2-5-3-3-3-3-3-3-3-3-3-3-3-3-3-3-3-3-|
A|----------------------------------------------------------| x 2
E|----------------------------------------------------------|

  2nd Verse

  Strum 1st Verse's Chords Palm Muted
  
e|-------------------------------------------------------------------------|
B|-------------------------------------------------------------------------|
G|-------------------------------------------------------------------------|
D|--3~--------------------------5~------------3~--------------------5~-----|
A|--3~--------------------------5~------------3~--------------------5~-----|
E|--1~--------------------------3~------------1~--------------------3~-----|
    What's black and white was........'

  Chorus
e|---------------------------------------------------------|
B|---------------------------------------------------------|
G|--9-9-9-9-9-9-9-9--5-5-5-5-5-5-5-5--7-7-7-7-7-7-7-7------|
D|--7-7-7-7-7-7-7-7--3-3-3-3-3-3-3-3--5-5-5-5-5-5-5-5------|
A|--0-0-0-0-0-0-0-0--3-3-3-3-3-3-3-3--5-5-5-5-5-5-5-5------| x 4
E|---------------------------------------------------------|
    
  Fill-in
e|----------------------------------------------------------|
B|----------------------------------------------------------|
G|--9-9-9-7-7-7-5-5-5-4-2-4-5-5-5-5-5-5-5-5-5-5-5-5-5-5-5-5-|
D|--7-7-7-7-7-7-7-7-7-5-2-5-3-3-3-3-3-3-3-3-3-3-3-3-3-3-3-3-|
A|----------------------------------------------------------| x 2
E|----------------------------------------------------------|

  Verse 3
e|------------------------------------|
B|------------------------------------|
G|------------------------------------|
D|--7~--------3~------7~---3~--5~-----|
A|--7~--------3~------7~---3~--5~-----| x 2
E|--5~--------1~------5~---1~--3~-----|

e|---------------------------------------------------------------------------|
B|---------------------------------------------------------------------------|
G|---------------------------------------------------------------------------|
D|--3~--------------------------5~------------3~--------------------5~-------|
A|--3~--------------------------5~------------3~--------------------5~-------|
E|--1~--------------------------3~------------1~--------------------3~-------|
    What's upside down was........'

  Chorus
e|---------------------------------------------------------|
B|---------------------------------------------------------|
G|--9-9-9-9-9-9-9-9--5-5-5-5-5-5-5-5--7-7-7-7-7-7-7-7------|
D|--7-7-7-7-7-7-7-7--3-3-3-3-3-3-3-3--5-5-5-5-5-5-5-5------|
A|--0-0-0-0-0-0-0-0--3-3-3-3-3-3-3-3--5-5-5-5-5-5-5-5------| x 4
E|---------------------------------------------------------|

Bridge
e|-----------------------------------------------------------------|
B|-----------------------------------------------------------------|
G|--5-5-5-5-5-5-5-5-5-5-5-5-5-5-5-5--------------------------------|
D|--5-5-5-5-5-5-5-5-5-5-5-5-5-5-5-5-3-3-3-3-3-3-3-3-3-3-3-3-3-3-3-3|
A|--3-3-3-3-3-3-3-3-3-3-3-3-3-3-3-3-3-3-3-3-3-3-3-3-3-3-3-3-3-3-3-3|
E|----------------------------------1-1-1-1-1-1-1-1-1-1-1-1-1-1-1-1|
 

e|-----------------------------------------------------------------|
B|-----------------------------------------------------------------|
G|-----------------------------------------------------------------| 
D|--7-7-7-7-7-7-7-7-7-7-7-7-7-7-7-7-5-5-5-5-5-5-5-5-5-5-5-5-5-5-5-5| 
A|--7-7-7-7-7-7-7-7-7-7-7-7-7-7-7-7-5-5-5-5-5-5-5-5-3-3-3-3-3-3-3-3| x 2
E|--5-5-5-5-5-5-5-5-5-5-5-5-5-5-5-5-3-3-3-3-3-3-3-3-1-1-1-1-1-1-1-1|


e|------------------------------------|
B|--8-8-8-6-6-6-5-5-5-5-5-6-6-6-5-5---|
G|--5-5-5-5-5-5-5-5-5-5-5-5-5-5-5-5---|
D|------------------------------------| x 6
A|------------------------------------|
E|------------------------------------|

e|---------------------------------------|
B|---------------------------------------|
G|--9-9-9-7-7-7-5-5-5-4-2-4-5 let ring---|
D|--7-7-7-7-7-7-7-7-7-5-2-5-3------------|
A|---------------------------------------| 
E|---------------------------------------|

************************************

| /   slide up
| \   slide down
| h   hammer-on
| p   pull-off
| ~   vibrato
| +   harmonic
| x   Mute note
| b   Bend
| pb  Pre-bend
| br  Bend release
| pbr Pre-bend release
| brb Bend release bend

************************************
Tap to rate this tab
 
# A B C D E F G H I J K L M N O P Q R S T U V W X Y Z