Song name
# A B C D E F G H I J K L M N O P Q R S T U V W X Y Z

Alkaline Trio - 97 Acoustic tab

ACOUSTIC 1/2 STEP DOWN
Just figure out the rhythm...

verse:
-------------------------------|E
-------------------------------|B
-9-----------------------------|G
-9--------11--9--7-------------|D
-7--------11--9--7----11---9---|A
----------------------9----7---|E

chorus:
---------------------------|E
---------------------------|B
---------------------------|G
-7----9----4----6---7------|D
-7----9----4----6---7------|A
-5----7----2----4---5------|E
Tap to rate this tab
 
# A B C D E F G H I J K L M N O P Q R S T U V W X Y Z