Song name
# A B C D E F G H I J K L M N O P Q R S T U V W X Y Z

Alkaline Trio - My Friend Peter tab

This is a prtty cool song, by one of my favorite bands, the other tab for this
song on this site is close, but you'll find my version to be much more accurate!

Intro

G|-----------------------------------------------------------|
D|-----------------------------------------------------------|
A|----------------4-4444-2-2222-6h7777-6h7777-4-4444-2-22222-|
E|-0-0000-0-0000---------------------------------------------|

G|--------------------------------------9-------------|
D|------------------------------------7---7-----------|
A|-6h7777-6h7777-4-4444-2-2222-0-0000-------2222-0000-|
E|----------------------------------------------------|
-
Verse

G|-----------------------------------------------------------------------|
D|-----------------------------------------------------------------------|
A|--------4-4--2-2--6h7777-6h7777--4-4--2-2--6h7777-6h7777-4-4444-2-2222-|
E|-0-0-------------------------------------------------------------------|

Verse continued...

G|---------------------|
D|---------------------|
A|-00000000--2222-0000-|
E|---------------------|

Bridge Filler Part

G|----------------------------------------------------------|
D|----------------------------------------------------------|
A|----------------4-4444-2-2222-6h7777-6h7777-4-4444-2-2222-|
E|-0-0000-0-0000--------------------------------------------|

Then play the verse again

Chorus

G|-----------------------------------------------------|
D|-----------------------------------------------------|
A|--------0-0000-2-2222-0202--------0-0000-2-2222-0000-|
E|-0-0000--------------------0-0000--------------------|

G|--------------------------------------------|
D|--------------------------------------------|
A|--------0-0000--22222222-00000000-2222-0000-|
E|-0-0000-------------------------------------|

Play Bridge Filler Part again

Final Verse 

G|-------------------------------------------------------------|
D|-------------------------------------------------------------|
A|-----------4444-2222-----------4444-2222-----------4444-2222-|
E|-0000-0000-----------0000-0000-----------0000-0000-----------|

Final Verse continued...

G|-------------------|
D|-------------------|
A|-00000000----2---0-|
E|-------------------|

Final Chorus (with ending)

G|-----------------------------------------------------|
D|-----------------------------------------------------|
A|--------0-0000-2-2222-0202--------0-0000-2-2222-0000-|
E|-0-0000--------------------0-0000--------------------|

G|----------------------------------------------------------|
D|----------------------2-1---------------------------------|
A|--------0-0000-2-2222-----4-2-0-0000000-2222-0000---------|
E|-0-0000-------------------------------------------0~~~~~0-|


Good Mourning to all...
Tap to rate this tab
 
# A B C D E F G H I J K L M N O P Q R S T U V W X Y Z