Alkaline Trio - Olde English 800 chords

Highlighted       Show chord diagrams
-------------------------------------------------------------------------------
			 OLDE ENGLISH 800 - Alkaline Trio
-------------------------------------------------------------------------------
Tabbed by: Benjamin Middleton
Email: prittstickster@gmail.com

Tuning: Standard [EADGBE]


INTRO [Rhythm Required]

e|--x----x----x--------------------------------------------------------------|
B|--2----3----0--------------------------------------------------------------|
G|--2----2----2--------------------------------------------------------------|
D|--2----2----2--------------------------------------------------------------|
A|--0----0----0--------------------------------------------------------------|
E|--x----x----x--------------------------------------------------------------|


A
O-L-D-E, 

E-N-G, 
L-I-S-H,

Eight Hundred,
E
Now I feel a whole lot better about myself
A
O-L-D-E, 

E-N-G,  

L-I-S-H,

Eight Hundred,
E
Now I feel a whole lot better about myself


D
You're charcoal filtered,
    A
Sun yellow malt liquor,
D		       A
You make my grey skies blue
D
I drink a day,
	  A
Lay as my liver's failing,
	
But I don't give a fuck,
E			      A
Olde English I'm in love with you


A
O-L-D-E, 

E-N-G,  

L-I-S-H,

Eight Hundred,
E
Now I feel a whole lot better about myself
A
O-L-D-E, 

E-N-G, 

L-I-S-H,

Eight Hundred,
E
Now I feel a whole lot better about myself


D
You're charcoal filtered,
    A
Sun yellow malt liquor,
D		       A
You make my grey skies blue
D
I drink a day,
	  A
Lay as my liver's failing,
	
But I don't give a fuck,
E			      A
Olde English I'm in love with you,
E			      A
Olde English I'm in love with you,
E			      D
Olde English I'm in love with you,
      A
You!
Tap to rate this tab
 
# A B C D E F G H I J K L M N O P Q R S T U V W X Y Z