Song name
# A B C D E F G H I J K L M N O P Q R S T U V W X Y Z

Alkaline Trio - Sleepyhead tab

----------------------------------------------------------------------------
			     SLEEPYHEAD - ALKALINE TRIO
----------------------------------------------------------------------------
Tabbed by:Alkalinepanda
Email:Alkalinepanda@Yahoo.com

First Tab, Correct anything wrong please, Dont give me shit if it sucks

Intro:
e-----------------------------------------------------------|
b-----------------------------------------------------------|
g-----6-6--6-6-6--6-6-6--6-6-6--6-6-6--6-6-6----------------|
d-x---x-x--x-x-x--x-x-x--x-x-x--x-x-x--x-x-x--7-7-7-7-7-7-6-| 
a-x---4-4--4-4-4--4-4-4--4-4-4--4-4-4--4-4-4--x-x-x-x-x-x-x-|  
E-x-0-----------------------------------------5-5-5-5-5-5-4-|
Verse:
e-----------------------------------------------------|
b-----------------------------------------------------|
g-----------------------------------------------------|
d---6-6---5-5---7-7---5-5---6-6---5-5---7-7-7-7-7-7-6-| X6
a---4-4---4-4---4-4---4-4---4-4---4-4---x-x-x-x-x-x-x-|
E---------------------------------------5-5-5-5-5-5-4-|

But on the 6th time instead of that play like this

e-------------------------------------------------------|
b-------------------------------------------------------|
g-----------------------------------------------------9-|
d---6-6---5-5---7-7---5-5---6-6---5-5---7-7-7-7-7-7-6-9-|
a---4-4---4-4---4-4---4-4---4-4---4-4---x-x-x-x-x-x-x-7-|
E---------------------------------------5-5-5-5-5-5-4---|

Chorus: 
- Not sure if I Counted Right,Just listen to the song and play it however many times -
e---------------------------------------------------------|
b---------------------------------------------------------|
g---------------------9-----------------------------------|
d---7-----------------9x19-----------------7--------------|
a---7x16--------------7--------------------7x15-----------|
e---5--------------------------------------5--------------|

e---------------------------------------------------------------|
b---------------------------------------------------------------|
g-9-9-9-9-9-9-9-9-9-9-9-8-8-8-8-8-8-9-9-9-9-9-9-9-9-9-9-9-9-9-0-|
d-x-x-x-x-x-x-x-x-x-x-x-x-x-x-x-x-x-x-x-x-x-x-x-x-x-x-x-x-x-x-0-|
a-7-7-7-7-7-7-7-7-7-7-7-6-6-6-6-6-6-7-7-7-7-7-7-7-7-7-7-7-7-7-0-|
E---------------------------------------------------------------|

Verse:
e-----------------------------------------------------|
b-----------------------------------------------------|
g-----------------------------------------------------|
d---6-6---5-5---7-7---5-5---6-6---5-5---7-7-7-7-7-7-6-| X4
a---4-4---4-4---4-4---4-4---4-4---4-4---x-x-x-x-x-x-x-|
E---------------------------------------5-5-5-5-5-5-4-|

Chorus: 
e---------------------------------------------------------|
b---------------------------------------------------------|
g---------------------9-----------------------------------|
d---7-----------------9x19-----------------7--------------|
a---7x16--------------7--------------------7x15-----------|
e---5--------------------------------------5--------------|

e---------------------------------------------------------------|
b---------------------------------------------------------------|
g-9-9-9-9-9-9-9-9-9-9-9-8-8-8-8-8-8-9-9-9-9-9-9-9-9-9-9-9-9-9-0-|
d-x-x-x-x-x-x-x-x-x-x-x-x-x-x-x-x-x-x-x-x-x-x-x-x-x-x-x-x-x-x-0-|
a-7-7-7-7-7-7-7-7-7-7-7-6-6-6-6-6-6-7-7-7-7-7-7-7-7-7-7-7-7-7-0-|
E---------------------------------------------------------------|

Bridge(Clean):

e-----------------------------------------------------------------|
b-----------------------------------------------------------------|
g-6-6-6-6-6-6-6-6-------6-6-6-6-6---------------------------------|
d-6-6-6-6-6-6-6-6-7-7-7-6-6-6-6-6-7-7-7-7-7-7-7-7-7-7-7-7-7-7-7-7-|x6
a-4-4-4-4-4-4-4-4-4-4-4-4-4-4-4-4-7-7-7-7-7-7-7-7-7-7-7-7-7-7-7-7-|
E---------------------------------5-5-5-5-5-5-5-5-5-5-5-5-5-5-5-5-|

On the 6th time play it like this

e-----------------------------------------------------------------|
b-----------------------------------------------------------------|
g-6-6-6-6-6-6-6-6-------6-6-6-6-6-4-4-4-4-4-4-4-4-4-4-4-4-4-4-4-4-|
d-6-6-6-6-6-6-6-6-7-7-7-6-6-6-6-6-4-4-4-4-4-4-4-4-4-4-4-4-4-4-4-4-|
a-4-4-4-4-4-4-4-4-4-4-4-4-4-4-4-4-2-2-2-2-2-2-2-2-2-2-2-2-2-2-2-2-|
E-----------------------------------------------------------------|

Put Your Distortion Back On

e-----------------------------------------------------------------|
b-----------------------------------------------------------------|
g-6-6-6-6-6-6-6-6-------6-6-6-6-6---------------------------------|
d-6-6-6-6-6-6-6-6-7-7-7-6-6-6-6-6-7-7-7-7-7-7-7-7-7-7-7-7-7-7-7-7-|x3
a-4-4-4-4-4-4-4-4-4-4-4-4-4-4-4-4-7-7-7-7-7-7-7-7-7-7-7-7-7-7-7-7-|
E---------------------------------5-5-5-5-5-5-5-5-5-5-5-5-5-5-5-5-|


e-----------------------------------------------------------------|
b-----------------------------------------------------------------|
g-----------------------------------------------------------------|
d-4-4-4-4-4-4-4-4-4-4-4-4-6-6-6-6-7-7-7-7-7-7-7-7-7-7-7-7-7-7-7-7-|
a-4-4-4-4-4-4-4-4-4-4-4-4-6-6-6-6-7-7-7-7-7-7-7-7-7-7-7-7-7-7-7-7-|
E-2-2-2-2-2-2-2-2-2-2-2-2-4-4-4-4-5-5-5-5-5-5-5-5-5-5-5-5-5-5-5-5-|

e-----------------------------------------------------------------|
b-----------------------------------------------------------------|
g-9-9-9-9-9-9-9-9-9-9-9-9-9-9-9-9---------------------------------|
d-x-x-x-x-x-x-x-x-x-x-x-x-x-x-x-x-7-7-7-7-7-7-7-7-7-7-7-7-7-7-7-7-|x2
a-7-7-7-7-7-7-7-7-7-7-7-7-7-7-7-7-7-7-7-7-7-7-7-7-7-7-7-7-7-7-7-7-|
E---------------------------------5-5-5-5-5-5-5-5-5-5-5-5-5-5-5-5-|

e---------------------------------------------------------------|
b---------------------------------------------------------------|
g-9-9-9-9-9-9-9-9-9-9-9-8-8-8-8-8-8-9-9-9-9-9-9-9-9-9-9-8-8-8---|
d-x-x-x-x-x-x-x-x-x-x-x-x-x-x-x-x-x-x-x-x-x-x-x-x-x-x-x-x-x-x-2-|
a-7-7-7-7-7-7-7-7-7-7-7-6-6-6-6-6-6-7-7-7-7-7-7-7-7-7-7-6-6-6-2-|
E-------------------------------------------------------------0-|

Lyrics:
All you've been asking for's been placed in front of you
 The headaches, the shaking, 
The boredom the boardroom brings
 You're scratching at itching 
brought by the spiders beneath your skin
 The answer in question is over before it begins
 
Hey there sleepy smile,
 I see you've brought your bedroom eyes
 Not assuming you wanna keep 'em,
 I'm assuming you reckon you won't
 
All you've been asking for's been placed in front of you
 The headaches, the shaking, 
The boredom the boardroom brings
 You're scratching at itching 
brought by the spiders beneath your skin
 The answer in question is over before it begins
 
Hey there sleepy smile,
 I see you've brought your bedroom eyes
 Not assuming you wanna keep 'em,
 I'm assuming you reckon you won't
 
Nothing to see here but the rain
 There's nothing to hold you but the flames
 Nothing to see here but the rain
 There's nothing to hold you but the flames
 Nothing to see here but the rain
 There's nothing to hold you but the flames
 Nothing to see here but the rain
 It's raining flames
 
Earth to sleepy smile,
 Where'd you take those bedroom eyes?
 Not assuming you wanna keep 'em,
 I'm assuming you reckon you won't
Tap to rate this tab
# A B C D E F G H I J K L M N O P Q R S T U V W X Y Z