Song name
# A B C D E F G H I J K L M N O P Q R S T U V W X Y Z

Alkaline Trio - Hell Yes tab

Intro 
                                     
E|------------------------------------|
B|------------------------------------|
G|------------------------------------|
D|----7--6--4--6-/-9--7--6--4---------|
A|-7--0--0--0--4------0--0--2---------|
E|-0---------------7------------------|
   
Vers 
                                   
E|------------------------------------|
B|------------------------------------|
G|------4----2------------------------|
D|-2----4----2------------------------|
A|-2----2----0------------------------|
E|-0----------------------------------|
   x    x    x

End of vers
                                    
E|------------------------------------|
B|------------------------------------|
G|-4----2-----------------------------|
D|-4----2-----------------------------|
A|-2----0-----------------------------|
E|------------------------------------|

Chorus

E|------------------------------------|
B|------------------------------------|
G|------6----4------------------------|
D|-2----6----4------------------------|
A|-2----4----2------------------------|
E|-0----------------------------------|

Bridge

E|------------------------------------|
B|------------------------------------|
G|-2----4-----------------------------|
D|-2----4-----------------------------|
A|-0----2-----------------------------|
E|------------------------------------|
   x    x

Brigde2

E|------------------------------------|
B|------------------------------------|
G|-2----4----2------------------------|
D|-2----4----2------------------------|
A|-0----2----0------------------------|
E|------------------------------------|
   x

Ending tones

E|------0-----------------------------|
B|------0-----------------------------|
G|-2----1-----------------------------|
D|-2----2-----------------------------|
A|-0----2-----------------------------|
E|------0-----------------------------|

Intro  x2
Vers  x4
End of vers x1
Intro  x2
Vers  x4
End of vers x1
Chorus  x2
Intro  x2
Vers  x4
End of vers x1
Chorus  x4
Bridge  x3
Bridge2  x1
Intro  x2
Chorus  x4
Ending tones x1
Tap to rate this tab
# A B C D E F G H I J K L M N O P Q R S T U V W X Y Z