Song name
# A B C D E F G H I J K L M N O P Q R S T U V W X Y Z

Alkaline Trio - Enjoy Your Day tab

The other tabs are incorrect because the song is not played in
standard tuning. Tune your guitar to the following and the song
instantly sounds right and the intro becomes much easier. Listen
to the song. The first 2 notes are the same but are obviously on
different strings; therefore it is clearly not standard tuning.
Tuning: EACGCe

Intro
e|----0-------0---------------8~------00-|
C|------20------20----0-------0~------00-|
G|--0-------0----------0-0--0-0~------00-|
C|-0-------0-------2-2--7--7--7~------00-|
A|3--3-3--2--2-2----3-----8--88~------55-|
E|----------------3-------------------33-|
Not positive about this last chord before
verse but it sounds just about right


Verse at :11 (just the chords; rhythm is not hard)
Notes in parantheses are kind of alternated with first given notes
e|0---------0---------0---------0---------|
C|0-(4)-(2)-0--(4)----0---------0---------|
G|0---------0---------0---------0---------|
C|0---------0---------2---------0---------|
A|3---------2---------3---------3---------|
E|--------------------3---------1---------|  x2

postverse at :52 ("door..."
e|0---0---0-------0-(8-0-8)--|
C|0---0---0-------0----------|
G|0---0---0-------0----------|
C|0---2---4-------7----------|
A|3---------------8----------|
E|---------------------------|

e|0---0---0-------0-----------8~----|
C|0---0---0-------0-----------0~----|
G|0---0---0-------0-----------0~----|
C|0---2---4-------0-----------7~----|
A|3---------------3-----------8~----|
E|----------------1-----------------|

At 1:11 "So happy Valentine's Day"
e|0---------0---------0---------0---------|
C|0---------0--(4)----0---------0---------|
G|0---------0---------0---------0---------|
C|0---------0---------2---------0---------|
A|3---------2---------3---------3---------|
E|--------------------3---------1---------|  x2

Outro at 1:50 "...es"
e|0---0---0-------0-(8-0-8)--|
C|0---0---0-------0----------|
G|0---0---0-------0----------|
C|0---2---4-------7----------|
A|3---------------8----------|
E|---------------------------|

e|0---0---0-------0-----------8----0~---|
C|0---0---0-------0-----------0----0~---|
G|0---0---0-------0-----------0----0~---|
C|0---2---4-------0-----------7----0~---|
A|3---------------3-----------8----3~---|
E|----------------1---------------------|
Tap to rate this tab
 
# A B C D E F G H I J K L M N O P Q R S T U V W X Y Z