Song name
# A B C D E F G H I J K L M N O P Q R S T U V W X Y Z

Alkaline Trio - I Held Her In My Arms tab

-------------------------------------------------------------------------------
                I HELD HER IN MY ARMS - Alkaline Trio
-------------------------------------------------------------------------------
Tabbed by: Rafa88offspring
Email: rafa88offspring@hotmail.com

Tuning: Standard (EADgbe)

Here's the tab version of this song (I've already tabbed out the chords,
but I don't know if they'll get approved on the site, cuz you never know :/)

Any questions/comments/suggestions/requests/anything you have my e-mail


Intro/Bridge
Guitar 1
A D A D A D E

Guitar 2
e|-(8)b9-7p5-7p5---5-7p5--|
B|---------------5--------| X3
G|------------------------|
D|------------------------|
A|------------------------|
E|------------------------|

e|-8b9-7-5----------------|
B|---------7p5-7p5-----5--|
G|-----------------6-7----|
D|------------------------|
A|------------------------|
E|------------------------|


Verse
Just strum the next chords each line:
A  D


Chorus
Guitar 1
A D A E x2

Guitar 2
e|----------------------------|
B|-10---10---10---10---10-10--|
G|-9----9----9----9----9--9---| X3       
D|-7----7----7----7----7--7---|
A|----------------------------|
E|----------------------------|

e|----------------------------------------------|
B|----------------------------------------------|
G|-9-9-9-9-11-11-11-11-12-12-12-12-16-16-16-16--|
D|-x-x-x-x-x--x--x--x--x--x--x--x--x--x--x--x---|
A|-7-7-7-7-9--9--9--9--10-10-10-10-14-14-14-14--|
E|----------------------------------------------|

e|----------------------------|
B|-10---10---10---10---10-10--|
G|-9----9----9----9----9--9---| X3       
D|-7----7----7----7----7--7---|
A|----------------------------|
E|----------------------------|

e|----------------------------------------------|
B|----------------------------------------------|
G|-9-9-9-9-11-11-11-11-12-12-12-12-16-16-16-16--|
D|-x-x-x-x-x--x--x--x--x--x--x--x--x--x--x--x---|
A|-7-7-7-7-9--9--9--9--10-10-10-10-14-14-14-14--|
E|----------------------------------------------|


Bridge x1

Verse 

Chorus 


Solo
Guitar 1
Plays the same as verse

Guitar2
e|----------------------------------|
B|----------------------------------|
G|----------------------------------| x2
D|-9b10-9b10-9b10-9b10-9p7---7-9p7--|
A|-------------------------9--------|
E|----------------------------------|

e|-----------------------------------------------------|
B|-----------------------------------------------------|
G|------9------9------9------9------9-9-7-6---7-6------|
D|-9h11---9h11---9h11---9h11---9h11---------9-----9p7--|
A|-----------------------------------------------------|
E|-----------------------------------------------------|


Verse

Chorus


Finish with Intro except the last time you'll play:
Guitar 1
D-E-A (strum once each, synchornized with guitar 2)

Guitar 2
e|-5-7-5--|
B|--------|
G|--------|
D|--------| 
A|--------|
E|--------|


************************************

| /   slide up
| \   slide down
| h   hammer-on
| p   pull-off
| ~   vibrato
| +   harmonic
| x   Mute note
| b   Bend
| pb  Pre-bend
| br  Bend release
| pbr Pre-bend release
| brb Bend release bend

************************************
Tap to rate this tab
# A B C D E F G H I J K L M N O P Q R S T U V W X Y Z