Song name
# A B C D E F G H I J K L M N O P Q R S T U V W X Y Z

Alkaline Trio - Sorry About That tab

---------------------------------
ALKALINE TRIO - SORRY ABOUT THAT
---------------------------------



NOTE:

this is the way Matt plays it ; i tabbed this out while watching live performances + listening closely.


----------------------------------------
Tabbed by Ben Dieltiens.

www.myspace.com/waitfortheblackout_
bloodied.up@hotmail.com
----------------------------------------




intro/verse

e|--------------------------------------------------------|
B|--------------------------------------------------------|
G|----6---------------------------------------------------|
D|----7---6>7------7-7------------------------------------|
A|--------7-7------5-5------------------------------------|
E|--------------------------------------------------------|


chorus

e|--------------------------------------------------------|   
B|--------------------------------------------------------|
G|--------------------------6----------9--7--6--4---------|  X2
D|---2----7----------9------7---7---9--x--x--x--x---------|  
A|---0----5----4-----7----------5---7--7--5--4--2---------|
E|-------------2------------------------------------------|


verse


chorus



Outro:
e----------------------------------------------------------|
B----------------------------------------------------------|
G-------4-4-4----------------------------------------------|
D-2-2-2-2-2-2-2-2---9-9-9-9-9-9-9--------------------------|
A-0-0-0-0-0-0-0-0---7-7-7-7-7-7-7--------------------------|
E----------------------------------------------------------|

e----------------------------------------------------------|
B----------------------------------------------------------|
G-------4-4-4----------------------------------------------|
D-2-2-2-2-2-2-2-2---9-9-9--7-7-7---------------------------|
A-0-0-0-0-0-0-0-0---7-7-7--5-5-5---------------------------|
E----------------------------------------------------------|

e----------------------------------------------------------|
B----------------------------------------------------------|
G-------4-4-4----------------------------------------------|
D-2-2-2-2-2-2-2-2---9-9-9-9-9-9-9--------------------------|
A-0-0-0-0-0-0-0-0---7-7-7-7-7-7-7--------------------------|
E----------------------------------------------------------|

e----------------------------------------------------------|
B----------------------------------------------------------|
G-------4-4-4-----------------9-9-9-9--7-7--6\4------------|
D-2-2-2-2-2-2-2-2---9-9-9-9---x-x-x-x--x-x--x\x--2---------|
A-0-0-0-0-0-0-0-0---7-7-7-7---7-7-7-7--5-5--4\2--0---------|
E----------------------------------------------------------|














Tap to rate this tab
 
# A B C D E F G H I J K L M N O P Q R S T U V W X Y Z