Song name
# A B C D E F G H I J K L M N O P Q R S T U V W X Y Z

Alkaline Trio - I Wanna Be A Warhol tab

ALKALINE TRIO
I WANNA BE A WARHOL
MY SHAME IS TRUE

INTRO
e|-----------------------------------------|
B|-----------------------------------------|
G|--9--10--5--7----------------------------|
D|--7---x--x--x-------------5--------------|
A|--0---8--3--5--3--2--0----5--------------|
E|-----------------------1--3--------------| x1


VERSE
          (i)                                          (ii)
e|-------------------|----------------------|
B|-------------------|----------------------|
G|--9--10--12---9---|---9--10--12-----------|
D|--7--10--12---9---|---7--10--12-----------|
A|--0---8--10---7---|---0---8--10-----------|
E|-------------------|----------------------|

(i) x 3
(ii) x 1


CHORUS
e|--------------------------------------------|
B|--------------------------------------------|
G|--5--4--5--5--5--5-----4--------------------|
D|--5--5--5--5--4--5-----5--3-----------------|
A|--3--3--3--0--0--0-----5--3-----------------|
E|-----------------------3--1-----------| x 2-|



PRE-VERSE

e|-----------------------------------------|
B|-----------------------------------------|
G|--9--10--9--10---------------------------|
D|--X---x--x---X-------------5-------------|
A|--7---8--7---9--3--2--0----5-------------|
E|------------------------1--3-------------|


VERSE

CHORUS

BRIDGE

e|---------------------------------------------|
B|---------------------------------------------|
G|--9--10--12--7-------------------------------|
D|--7---x--X---x-------------------------------|
A|--0---8--10--5-------------------------------|
E|---------------------------------------| x 4-|

OUTRO/CHORUS

e|----------------------------------------------------------------------|
B|----------------------------------------------------------------------|
G|------5---4---5------5---4---5-----5---4---5-------10----9----10------|
D|----5---5---5------5---5---5-----5---5---5------10----10---10---------|
A|--3--------------0-----------------------------8----------------------|
E|-------------------------------3--------------------------------------|


CHORUS

ENDING

e|-----------------------------------------|
B|--------------1--------------------------|
G|--9--10--12--2---------------------------|
D|--7---x--X---2---------------------------|
A|--0---8--10--0---------------------------|
E|-----------------------------------------|
Tap to rate this tab
# A B C D E F G H I J K L M N O P Q R S T U V W X Y Z