Song name
# A B C D E F G H I J K L M N O P Q R S T U V W X Y Z

Alkaline Trio - I Wanna Be A Warhol tab

Alkaline Trio - I Wanna Be A Warhol

Tabbed By: SpreadSomeLove
Standard Tuning

Intro (Guitar 1)
e|----------------------------------------------------------------|
B|----------------------------------------------------------------|
G|--------------------------------5-5-5-5-5-5-5-5-5-5-5-5-5-5-5-5-|
D|7-7-7-7-7-7-7-7-3-3-3-3-3-3-3-3-5-5-5-5-5-5-5-5-5-5-5-5-5-5-5-5-|
A|7-7-7-7-7-7-7-7-3-3-3-3-3-3-3-3-3-3-3-3-3-3-3-3-3-3-3-3-3-3-3-3-|
E|5-5-5-5-5-5-5-5-1-1-1-1-1-1-1-1---------------------------------|

e|---------------------------------------------------------------|
B|---------------------------------------------------------------|
G|---------------------------------------------------------------|
D|7-7-7-7-7-7-7-7-3-3-3-3-3-3-3-3-5--5-5-5-5-5-5-5-5-5-5-5-5-5-5-|
A|7-7-7-7-7-7-7-7-3-3-3-3-3-3-3-3-5--5-5-5-5-5-5-5-5-5-5-5-5-5-5-|
E|5-5-5-5-5-5-5-5-1-1-1-1-1-1-1-1-3--3-3-3-3-3-3-3-3-3-3-3-3-3-3-|
                                     . . . . . . . . . . . . . .
Intro (Guitar 2)
e|---------------------------------------------------------------|
B|---------------------------------------------------------------|
G|9-9-9-9-9-9-9-9-9-9-9-9-9/109--9-9-9-9-9-9-9-9-9-9-9-9-9-9-9-9-|
D|---------------------------------------------------------------|
A|7-7-7-7-7-7-7-7-7-7-7-7-7/8\7--7-7-7-7-7-7-7-7-7-7-7-7-7-7-7-7-|
E|---------------------------------------------------------------|

e|----------------------------|
B|----------------------------|
G|----------------------------|
D|----------------------------|
A|----------------------------|
E|8----7----5----1----3-------|

Verse
e|--------------------------------------------------------|
B|--------------------------------------------------------|
G|----------------------------1010-101010-105-5--5-7-7--7-| 
D|7-7--7-7-7--7-7-7--7-7-7--7-1010-101010-105-5--5-7-7--7-| 3x
A|7-7--7-7-7--7-8-8--8-7-7--7-8-8--8-8-8--8-3-3--3-5-5--5-|
E|5-5--5-5-5--5-5-5--5-5-5--5-----------------------------|

e|-----------------------------------------------------------|
B|-----------------------------------------------------------|
G|-----------------------------------------------------------| 
D|7-7--7-7-7--7-7-7--7-7-7--7-5--5-5-5-5-5-5-5-5-5-5-5-5-5-5-|
A|7-7--7-7-7--7-8-8--8-7-7--7-5--5-5-5-5-5-5-5-5-5-5-5-5-5-5-|
E|5-5--5-5-5--5-5-5--5-5-5--5-3--3-3-3-3-3-3-3-3-3-3-3-3-3-3-|
                                 . . . . . . . . . . . . . .

Chorus
e|----------------------------------------------------------------|
B|----------------------------------------------------------------|
G|----------------------------------------------------------------|
D|101010101010101010101010101010107-7-7-7-7-7-7-7-7-7-7-7-7-7-7-7-|
A|101010101010101010101010101010107-7-7-7-7-7-7-7-7-7-7-7-7-7-7-7-|
E|8-8-8-8-8-8-8-8-8-8-8-8-8-8-8-8-5-5-5-5-5-5-5-5-5-5-5-5-5-5-5-5-|

e|----------------------------------------------------------------|
B|----------------------------------------------------------------|
G|----------------------------------------------------------------| Repeat 
D|5-5-5-5-5-5-5-5-5-5-5-5-5-5-5-5-3-3-3-3-3-3-3-3-3-3-3-3-3-3-3-3-| Chorus
A|5-5-5-5-5-5-5-5-5-5-5-5-5-5-5-5-3-3-3-3-3-3-3-3-3-3-3-3-3-3-3-3-| 2x
E|3-3-3-3-3-3-3-3-3-3-3-3-3-3-3-3-1-1-1-1-1-1-1-1-1-1-1-1-1-1-1-1-|

Repeat Intro

Repeat Verse

Repeat Chorus

Bridge
e|--------------------------------------------------------------------|
B|--------------------------------------------------------------------|
G|--------------------------------------------------------------------|
D|7---------------------------------7---------------------------------|
A|7------------------------3--------7----------------3--------5-------|
E|5---------------1-----------------5---------------------------------|

e|----------------------------------------------------------------------------|
B|----------------------------------------------------------------------------|
G|----------------------------------------------------------------------------|
D|7---------------------------------7-----------------------------------------|
A|7------------------------3--------7-----------------------------5-5-5-5-5-5-|
E|5---------------1-----------------5----------------1---------3--3-3-3-3-3-3-|
                                                                  . . . . . .

e|------------------------------------------------|
B|------------------------------------------------|
G|------------------------------------------------|
D|------------------------------------------------|
A|5-5-5-5-5-5-5-5-5-5-5-5-5-5-5-5-5-5-5-5-5-5-5-5-|
E|3-3-3-3-3-3-3-3-3-3-3-3-3-3-3-3-3-3-3-3-3-3-3-3-|
  . . . . . . . . . . . . . . . . . . . . . . . .

Final Chorus (Guitar 1 plays Chorus riff 3x, while Guitar 2 plays):
e|----------------------------------------------------------------------------------------|
B|----------------------------------------------------------------------------------------|
G|--------5--------4------------5--------4------------5--------4------------10-------9----| 3x
D|-----5--------5------------5--------5------------5--------5------------10-------10------|
A|--3--------3------------0--------0----------------------------------8--------8----------|
E|----------------------------------------------3--------3--------------------------------|

Outro
e|-----------------------------------------------------------|
B|-----------------------------------------------------------|
G|-----------------------------------------------------------|
D|7--------3--------5------------------------7---------------|
A|7--------3--------5------------------------7---------------|
E|5--------1--------3------------------------5---------------|


************************************

| /   slide up
| \   slide down
| .   Mute note

************************************

That's about it. Please rate and comment!
Tap to rate this tab
# A B C D E F G H I J K L M N O P Q R S T U V W X Y Z